Guitar Tabs for Give Me Some Sunshine

Saari Umrr Hum Mar Mar Ke Ji Liye
E|--------------------------------------------------------------
B|--------------------------------------------------------------
G|---7/9--9-----7--5---5/7-----5--7---7/9--9-----7--5---5/7-----
D|--------------------------------------------------------------
A|--------------------------------------------------------------
E|--------------------------------------------------------------

Ik Pal Toh Abb Hamein Jine Do, Jine Do
E|-----------------------------------------------------------------
B|-----------------------------------------------------------------
G|--5--7---7/9--9-----7--5---5/7---5\2--2-----5-----5--2---5/7-----
D|-----------------------------------------------------------------
A|-----------------------------------------------------------------
E|-----------------------------------------------------------------

Saari Umrr Hum Mar Mar Ke Ji Liye
E|-----------------------------------------------------------
B|-----------------8-----------------------------------------
G|---7/9--9-----9-----7-----5--7---7/9--9------9/12-9--7-----
D|-----------------------------------------------------------
A|-----------------------------------------------------------
E|-----------------------------------------------------------

Ik Pal Toh Abb Hamein Jine Do, Jine Do
E|-----------------------------------------------------------------
B|-----------------------------------------------------------------
G|--5--7---7/9--9-----7--5---5/7---5\2--2-----5-----5--2---5/7-----
D|-----------------------------------------------------------------
A|-----------------------------------------------------------------
E|-----------------------------------------------------------------

na naa
E|--------------------------------------------
B|---6/8--8--5--6-----5--6---6/8--8--5--6-----
G|--------------------------------------------
D|--------------------------------------------
A|--------------------------------------------
E|--------------------------------------------

naa naa
E|-----------------------------8--8--7---8/10-8--10----
B|---6/8--8--5--6-----6--8--8--------------------------
G|-----------------------------------------------------
D|-----------------------------------------------------
A|-----------------------------------------------------
E|-----------------------------------------------------

Give Me Some Sunshine, Give Me Some Rain
E|--10/12-12-10\8--10-10----8--10-10/12-12-10\8--10----
B|-----------------------------------------------------
G|-----------------------------------------------------
D|-----------------------------------------------------
A|-----------------------------------------------------
E|-----------------------------------------------------

Give Me Another Chance I Wanna Grow Up Once Again
E|--10/12-12-12-10-10\8--8--8--8--------8--8------8/10----10/12-------
B|--------------------------------10-10-------10----------------13----
G|--------------------------------------------------------------------
D|--------------------------------------------------------------------
A|--------------------------------------------------------------------
E|--------------------------------------------------------------------
tabs and chords, guitar tabs, music transcription, music technology, deep learning, music information retrieval, transcribe into tabs & chords, chordify, music renditions, songsterr, reverbnation, tabulature, bollywood chords, ultimate guitar, yousician, guitar lessons, acoustic guitar, electric guitar, guitar tuner, 911 tabs