Guitar Tabs for Gilehriyaan - Dangal Tabs

Gilehriyan Dangal (Aamir Khan Zaira Wasim) Guitar Tabs

Kyun phudak phudak ke dhadkano ki chal rahin gilehriyan
E|--------------------------------------------------------
B|--------------------------------------------------------
G|--10----10----10----10-10-9-----9-----9-----9--9--7-----
D|-----10----10----10----------10----10----10-------------
A|--------------------------------------------------------
E|--------------------------------------------------------

Main jaanu na jaanu na jaanu na jaanu na
E|-----------------------------------------
B|-----------------------------8--10-8-----
G|--5--5--7--9--7--9--10-9--10----------10-
D|-----------------------------------------
A|-----------------------------------------
E|-----------------------------------------

tabs and chords, guitar tabs, music transcription, music technology, deep learning, music information retrieval, transcribe into tabs & chords, chordify, music renditions, songsterr, reverbnation, tabulature, bollywood chords, ultimate guitar, yousician, guitar lessons, acoustic guitar, electric guitar, guitar tuner, 911 tabs