Guitar Tabs for Ghungroo

Intro
E|-----------------------------------------------------------------
B|-----------------------------------------------------------------
G|--2-----4--2-----2--4--4-----2--4--4-----2--4--2--4---4/6--4--2--
D|--------------4--------------------------------------------------
A|-----------------------------------------------------------------
E|-----------------------------------------------------------------


E|-----------------------------------------------------------
B|-----------------------------------------------------------
G|-----------------------------------------------------------
D|--2-----4--4-----2-----4--4---4/6--4--2--4--2-----4--2-----
A|-----------------------------------------------------------
E|-----------------------------------------------------------

Kyun lamhe kharab karein
E|--------------------------------------------
B|--------------------------------------------
G|---4/6--7--6--6-----2--4---4/6--7--6--6-----
D|--------------------------------------------
A|--------------------------------------------
E|--------------------------------------------

Aa ghalti behisab karein
E|-----------------------------------------------
B|-----------------------------------------------
G|---4/6--7--6--6---4\2--2--4------4/6--4--4-----
D|-----------------------------------------------
A|-----------------------------------------------
E|-----------------------------------------------

Do pal ki jo neend udi
E|--------------------------------------------
B|--------------------------------------------
G|---4/6--7--6--6-----2--4---4/6--7--6--6-----
D|--------------------------------------------
A|--------------------------------------------
E|--------------------------------------------

Aa poore saare khaab karein
E|-----------------------------------------------
B|-----------------------------------------------
G|---4/6--7--6--6---4\2--2--4------4/6--4--4-----
D|-----------------------------------------------
A|-----------------------------------------------
E|-----------------------------------------------

Kya karne hai umron ke waade
E|--------------------------------------------------------------
B|--------5---5h7---5h-7p5-----3---3h5---3h-5p3-----2--2--3-----
G|---4/6--------------------------------------------------------
D|--------------------------------------------------------------
A|--------------------------------------------------------------
E|--------------------------------------------------------------

Ye jo rehte hain rehne de aadhe
E|-----------------------------------------------------------------
B|--------5---5h7---5h-7p5-----3---3h5---3h-5p3-----2---2h-3p2-----
G|---4/6--------------------------------------------------------4--
D|-----------------------------------------------------------------
A|-----------------------------------------------------------------
E|-----------------------------------------------------------------

Do baar nahi ik baar sahi
E|-----------------------------------------------------
B|-----------------------------------------------------
G|-----2--4---4/6--7--6--6-----2--4---4/6--7--6--6-----
D|-----------------------------------------------------
A|-----------------------------------------------------
E|-----------------------------------------------------

Ik raat ki kar le tu yaari
E|-----------------------------------------------
B|-----------------------------------------------
G|-----------------4--6---6/9--7--6---6h-7p6--4--
D|---4/7--6--7-----------------------------------
A|-----------------------------------------------
E|-----------------------------------------------

Subah tak maan ke meri baat
Tu aise zor se naachi aaj
E|-----------------------------------------------------------------------------------
B|-----------------------------------------------------------------------------------
G|-----------------4-----4-----4--4---4\2--4-----4--4---4\2--2-----2--2---2/4--1-----
D|-----4--4-----7--------------------------------------------------------------------
A|-----------------------------------------------------------------------------------
E|-----------------------------------------------------------------------------------

Ki ghungroo toot gaye
Ki ghungroo toot gaye
E|-----------------------------------------------------------------------------------
B|-----------------------------------------------------------------------------------
G|--1--1--2--4---1h-2p1--------------------1--1--2--4---1h-2p1-----------------------
D|-----------------------4--4--4---4/7--6-----------------------4--4--4---4/6--4-----
A|-----------------------------------------------------------------------------------
E|-----------------------------------------------------------------------------------

Chhod ke saare sharm aur laaj
Main aise zor se naachi aaj
E|--------------7-----7--7--7---7\5---5/7-----7--7---7\5--5-----5-----5---5/7--4-----
B|--7--7-----10----------------------------------------------------------------------
G|-----------------------------------------------------------------------------------
D|-----------------------------------------------------------------------------------
A|-----------------------------------------------------------------------------------
E|-----------------------------------------------------------------------------------

Ki ghungroo toot gaye
Ki ghungroo toot gaye
E|-----4--4--5--7------4h-5p4-----------------------4--4--5--7---4h-5p4--------------------
B|-----------------------------7--7--7---7/10-9--------------------------7--7--7---7/9--7--
G|-----------------------------------------------------------------------------------------
D|-----------------------------------------------------------------------------------------
A|-----------------------------------------------------------------------------------------
E|-----------------------------------------------------------------------------------------
tabs and chords, guitar tabs, music transcription, music technology, deep learning, music information retrieval, transcribe into tabs & chords, chordify, music renditions, songsterr, reverbnation, tabulature, bollywood chords, ultimate guitar, yousician, guitar lessons, acoustic guitar, electric guitar, guitar tuner, 911 tabs