Guitar Tabs for College


BPM = 210

intro 
E|------------------------------------------|
B|------------------------------------------|
G|------------------------------------------|
D|-----6-6---6---6---0----5-5---0---6---6---| x2
A|-------------4---4----6-----6---4---4-----|
E|--4------4--------------------------------|


chorus (Guitar 1 & 2 play 1st time, Guitar 1 play intro 2nd time)
E|---------------------------------------------------------------------------------------|
B|---------------------------------------------------------------------------------------|
G|-------------66666666---7---888888---66666666------------666666--7--8888888888888888---|
D|--66666666---66666666---7---888888---66666666------------666666--7--8888888888888888---| x2
A|--66666666---44444444---5---666666---44444444---666666---444444--5--6666666666666666---|
E|--44444444--------------------------------------444444---------------------------------|

Verse (Palm Muted)
E|---------------------------------------------------------------------------------------|
B|---------------------------------------------------------------------------------------|
G|-------------66666666---7---888888---66666666------------666666--7--8888888888888888---|
D|--66666666---66666666---7---888888---66666666------------666666--7--8888888888888888---| x2
A|--66666666---44444444---5---666666---44444444---666666---444444--5--6666666666666666---|
E|--44444444--------------------------------------444444---------------------------------|

Bridge
E|---------------------------------------------------------------------------------------|
B|---------------------------------------------------------------------------------------|
G|--13--------------------------------------------13-------------------------------------|
D|--13--Let Ring----------------------------------13-6-----Let Ring----------------------|
A|--11--------------------------------------------11-6-----------------------------------|
E|---------------------------------------------------4-----------------------------------|









chorus 2 (Guitar 1 & 2 play 1st and 2nd time, Guitar 1 play intro 3rd and 4th time)
E|---------------------------------------------------------------------------------------|
B|---------------------------------------------------------------------------------------|
G|-------------66666666---7---888888---66666666------------666666--7--8888888888888888---|
D|--66666666---66666666---7---888888---66666666------------666666--7--8888888888888888---| x4
A|--66666666---44444444---5---666666---44444444---666666---444444--5--6666666666666666---|
E|--44444444--------------------------------------444444---------------------------------|
tabs and chords, guitar tabs, music transcription, music technology, deep learning, music information retrieval, transcribe into tabs & chords, chordify, music renditions, songsterr, reverbnation, tabulature, bollywood chords, ultimate guitar, yousician, guitar lessons, acoustic guitar, electric guitar, guitar tuner, 911 tabs