Guitar Tabs for Galway Girl Intro - Ed Sheeran

(/) Slide Up  (\) Slide Down  (h) Hammer On  (p) Pull Off  (b) Bend (r) Release (v) Vibrato (x) Muted

Capo 2nd fret

[Intro]
e|--------------------------------------------------------------------------
B|--------------------------------------------------------------------3-----
G|--------------0--0---2h4---2p0-----------------0---2h4---2p0---2h4--------
D|--2--2---0h2---------------------2p0--2---0h2-----------------------------
A|--------------------------------------------------------------------------
E|--------------------------------------------------------------------------

e|-3--/2--0---3p0--0-----------0--------------------------------------------------------------
B|---------------------3p0--3------3p0--------------------------------------------0-----------
G|---------------------------------------2p0--------------0---------0h-2p0--0--0------2p0-----
D|---------------------------------------------2p0---0h2------0h2-----------------------------
A|--------------------------------------------------------------------------------------------
E|--------------------------------------------------------------------------------------------


Paste any tab in acousterr's tab maker and we'll play it !!!
Now supports capo and sound effects for vibrato/pull-off/hammer/bends/mutes etc !!! Checkout help section
tabs and chords, guitar tabs, music transcription, music technology, deep learning, music information retrieval, transcribe into tabs & chords, chordify, music renditions, songsterr, reverbnation, tabulature, bollywood chords, ultimate guitar, yousician, guitar lessons, acoustic guitar, electric guitar, guitar tuner, 911 tabs