Guitar Tabs for Galveston - Glen Campbell Tabs

(/) Slide Up  (\) Slide Down  (h) Hammer On  (p) Pull Off  (b) Bend (r) Release (v) Vibrato

Tabs for Song : 
Capo 3rd fret
Song lyrics here Intro
E|-----------------------2--2--2--2--2-----2-----------------------2--2--2--2--2--2-----3-----0--
B|-----0-----------------3--3--3--3--3-----3-----0-----------------3--3--3--3--3--3-----0-----2--
G|--2-----2--------------2--2--2--2--2-----2--2-----2--------------2--2--2--2--2--2-----0-----2--
D|-----------4--2--0-----------------------------------4--2--0-----------------------------------
A|-----------------------------------------------------------------------------------------------
E|-----------------------------------------------------------------------------------------------
                                                                         
E|-----------------------------2--2-----------------------------------------0--
B|-----------------0-----------3--3-----------------------------------------3--
G|-----2--2-----2-----2--2-----2--2--------2--2-----2-----------------------0--
D|--4-----------------------------------4--------------4-----0-----0--------2--
A|--------------------------------------------------------------2--------------
E|-----------------------------------------------------------------------------
                                                                                                           x2
E|--------------------------------0-----------------------------------------------------0-----0-----0--2--3--0--
B|--------------------------------3-----------------------------------------------------3-----3-----3--3--0--2--
G|--------------------------------0-----------------------------------------------------0-----0-----0--2--0--2--
D|--0--2--4--2--4--------0--------2-----------0--0--0--2--4-----------4--4--2--0--0-----------------------------
A|-----------------0--2--------------------------------------------0-----------------------0--------------------
E|--------------------------------------------------------------------------------------------------------------

Song lyrics here
E|--2--3--2-----1--------------------------------------------1--1-----3--3-----0--------------------------------
B|--3--0--3-----1-----1--1--1--1-----1--1--0-----------------1--1-----0--0-----1-----1--1--1-----1--1--0--------
G|--2--0--2-----2-----------------------------0--2--2--------2--2-----0--0-----2--------------------------0--2--
D|--------------------------------------------------------------------------------------------------------------
A|--------------------------------------------------------------------------------------------------------------
E|--------------------------------------------------------------------------------------------------------------

E|--------------------------------------------------------------------1--1-----1-----3-----0--
B|--------------------------------------------------------------------1--1-----1-----0-----2--
G|--2--2--2--2-----2--2-----2-----0--------0--0--0--0--0--------------2--2-----2-----0-----2--
D|-----------------------------------2--------------------2-----0--------------0--------------
A|-----------------------------------------------------------3--------------------------------
E|--------------------------------------------------------------------------------------------

E|--------------------0--2--0--------2--2-----------------------------------0--------------------------------------0--
B|-----------3-----3-----------3-----3--3-----------------------------------3--------------------------------------3--
G|-----2--2--------------------------2--2--------2--2-----2-----------------0--------------------------------------0--
D|--4-----------------------------------------4--------------4--0-----0-----2-----0--0--2--4-----2--4--------0-----2--
A|-----------------------------------------------------------------2-----------------------------------0--2-----------
E|--------------------------------------------------------------------------------------------------------------------

E|-----------------------------------------------------------------0--------------------0--------------------2--3--2--------2--
B|-----------------------------0--3--2-----------2-----3--2--0-----3-----0--2-----0-----3-----0-----------------------3-----3--
G|-----------------------2-----------------2-----------------------0-----------2--------0--------2-----2--2--------------2--2--
D|--0--0--2--4-----2--4--------------------------------------------2--------------------2-----------4-----0-----------------0--
A|--------------------------------------------------------------------------------------0--------------------------------------
E|-----------------------------------------------------------------------------------------------------------------------------

Now supports capo and sound effects for vibrato/pull-off/hammer/bends etc !!! Checkout help section
tabs and chords, guitar tabs, music contests, music covers, songsterr, reverbnation, renditions, tabulature, bollywood chords, ultimate guitar, yousician, guitar lessons, torrins, fender, gibson, acoustic guitar, electric guitar, youtube covers, gootar, guitar tuner, A-Z tabs, 911 tabs