Guitar Tabs for Brandon Campbell Jazz Lines

(/) Slide Up  (\) Slide Down  (h) Hammer On  (p) Pull Off  (b) Bend (r) Release (v) Vibrato (x) Muted


Brandon Campbell - Jazz Lines


    Am ("The Danbury Shakes" 0:06) 
E|-----------8--7--8---8/12-11-10-
B|---7/10-10----------------------
G|--------------------------------
D|--------------------------------
A|--------------------------------
E|--------------------------------


    Am ("The Danbury Shakes" 0:12)  
E|--11-12-7--8-----------------------------------
B|--------------9--10----------------------------
G|--------------------8--9--10p9--8--9--10-8--9--
D|-----------------------------------------------
A|-----------------------------------------------
E|-----------------------------------------------

E|--
B|--
G|--
D|--
A|--
E|--

Use manual mode to free up cursor. Paste any tab in acousterr tab maker and we'll play it !!!
tabs and chords, guitar tabs, music transcription, music technology, deep learning, music information retrieval, transcribe into tabs & chords, chordify, music renditions, songsterr, reverbnation, tabulature, bollywood chords, ultimate guitar, yousician, guitar lessons, acoustic guitar, electric guitar, guitar tuner, 911 tabs