Guitar Tabs for Blue Moon Of Kentucky

(/) Slide Up  (\) Slide Down  (h) Hammer On  (p) Pull Off  (b) Bend (r) Release (v) Vibrato

Tabs for Song : 

Song lyrics here
E|--0--0--0-----------------------------2-----------------------0-----0--------------0-----0--0--0--------------
B|-----------2--0--------0--------------3--------------------2-----------2-----0-----0--------2--------2--0-----
G|-----------------2--------2-----------2-----2--2-----2--2-----------------2--------1--------2--------------2--
D|-----------------------------4--0-----------------------------------------------------------------------------
A|--------------------------------------------------------------------------------------------------------------
E|--------------------------------------------------------------------------------------------------------------

E|--------------------2-----------------------------------------0--------------------------------2--------0--0-----
B|--0-----------------3-----------2--------------2--0-----------2--------2--2-----3-----3--3--3--------3--------2--
G|-----2--------------2-----2--2-----2-----1-----------2--2-----2--------------------------------------------------
D|--------4--0--------------------------2--------------------------------------------------------------------------
A|-----------------------------------------------------------------------------------------------------------------
E|-----------------------------------------------------------------------------------------------------------------

E|--0-----------------------------2-----0--------0--5-----0--------------0--0--0-----------------------------------2--
B|--------3--3-----3-----3--3--3-----------------------------2-----0--------2--------2--0--------0-----------------3--
G|--------------------------------------------------------------2-----------2--------------2--------2--------------2--
D|-----------------------------------------------------------------------------------------------------4--0-----------
A|--------------------------------------------------------------------------------------------------------------------
E|--------------------------------------------------------------------------------------------------------------------

Song lyrics here
E|--------------------------------------------0--0-----0--0--0--------------------------------2--2--
B|-----------2--------------2--0--------------2--2-----------------------------0--------------3--3--
G|--2--2--------2-----1-----------2--2--------2--2-----------------2--2--2--------2-----------2--2--
D|-----------------2-----------------------------------------------------------------4--0-----------
A|-----------------------------------------0--------------------------------------------------------
E|--------------------------------------------------------------------------------------------------

E|-----------------------0--0--0-----------0-----0-----0--0--0--------------------------------2--2--
B|--------------------------------2--0-----0-----0--------2--------2--0--------0--------------3--3--
G|--2--2-----2--2--2-----------------------1-----1--------2--------------2--------2-----------2--2--
D|-----------------------------------------------------------------------------------4--0-----------
A|--------------------------------------------------------------------------------------------------
E|--------------------------------------------------------------------------------------------------

E|-----------------------------------------0--------------------------2--------0--0-----0-----------------2--
B|-----------------------------2-----------2-----3--3--3-----3--3--3--------3--------2--------3--3--3--3-----
G|--2--2-----2--2-----1-----------2--2-----2-----------------------------------------------------------------
D|-----------------2--------2--------------------------------------------------------------------------------
A|-----------------------------------------------------------------------------------------------------------
E|-----------------------------------------------------------------------------------------------------------

E|--0--0--0--------------0-----0-----0--0--------------------------------2--2--------------------------------------
B|-----------2-----0-----0-----------2--------2--0--------0--------------3--3-----------------------------2--------
G|--------------2--------1-----------2--------------2--------2-----------2--2-----2--2-----2--2--2--1--------2--2--
D|--------------------------------------------------------------4--0-----------------------------------2-----------
A|-----------------------------------------------------------------------------------------------------------------
E|-----------------------------------------------------------------------------------------------------------------

Now supports capo and sound effects for vibrato/pull-off/hammer/bends etc !!! Checkout help section
tabs and chords, guitar tabs, music transcription, music technology, deep learning, music information retrieval, transcribe into tabs & chords, chordify, music renditions, songsterr, reverbnation, tabulature, bollywood chords, ultimate guitar, yousician, guitar lessons, acoustic guitar, electric guitar, guitar tuner, 911 tabs