Guitar Tabs for Galileu - Fernandinho (db) - Guitarra Solo

Tabs for Song : Galileu - Fernandinho
TOM : Db - Sem Capo
BPM : 116 - Moderato 4/4

INTRO 
E|--------------------------|--------------------------|--------------------------|
B|--14-14-14-14-16-16-16-16-|--11-11-11-11-11-11-11-11-|--------------------------|
G|--------------------------|--------------------------|--------------------------|
D|--------------------------|--------------------------|--------------------------|
A|--------------------------|--------------------------|--------------------------|
E|--------------------------|--------------------------|--------------------------|

E|--------------------------|--------------------------|--------------------------|
B|--14-14-14-14-16-16-16-16-|--14----11----14----11----|--14----------------------|
G|--------------------------|--------------------------|--------------------------|
D|--------------------------|--------------------------|--------------------------|
A|--------------------------|--------------------------|--------------------------|
E|--------------------------|--------------------------|--------------------------|

ESTROFE - "... Naquela Via..."
E|--------------------------|--------------------------|--------------------------|--------------------------|
B|--14----------------------|--14----------14----------|--14----------------------|--14----------9-----------|
G|--------------------------|--------------------------|--------------------------|--------------------------|
D|--------------------------|--------------------------|--------------------------|--------------------------|
A|--------------------------|--------------------------|--------------------------|--------------------------|
E|--------------------------|--------------------------|--------------------------|--------------------------|

E|--------------------------|--------------------------|--------------------------|--------------------------|
B|--9/11--11----------------|--11----------11----------|--13-------13/14--14------|--13-------14----13----9--|
G|--------------------------|--------------------------|--------------------------|--------------------------|
D|--------------------------|--------------------------|--------------------------|--------------------------|
A|--------------------------|--------------------------|--------------------------|--------------------------|
E|--------------------------|--------------------------|--------------------------|--------------------------|

E|--------------------------|--------------------------|------------------13------|--------------------------|
B|--9/11--11----------------|--11----------11----------|--13-------13/14----------|--14-------13-------------|
G|--------------------------|--------------------------|--------------------------|--------------------------|
D|--------------------------|--------------------------|--------------------------|--------------------------|
A|--------------------------|--------------------------|--------------------------|--------------------------|
E|--------------------------|--------------------------|--------------------------|--------------------------|

ESTROFE2 - "...Eu me rendo..."
E|--------------------------|--------------------------|--------------------------|--------------------------|
B|--9h11--11-11-11-11-11-11-|--------------------------|--7h9--9--9--9--9--9--9---|--------------------------|
G|--------------------------|--8h10--10-10-10-10-10----|--------------------------|--6h8--8--8--8--8--8--8---|
D|--------------------------|--------------------------|--------------------------|--------------------------|
A|--------------------------|--------------------------|--------------------------|--------------------------|
E|--------------------------|--------------------------|--------------------------|--------------------------|

E|--------------------------|--------------------------|--------------------------|---8h9--9--9--9--9--9--9--|
B|--9h11--11-11-11-11-11-11-|--------------------------|--7h9--9--9--9--9--9--9---|--------------------------|
G|--------------------------|--8h10--10-10-10-10-10----|--------------------------|--------------------------|
D|--------------------------|--------------------------|--------------------------|--------------------------|
A|--------------------------|--------------------------|--------------------------|--------------------------|
E|--------------------------|--------------------------|--------------------------|--------------------------|

PONTE - "...Deus Emanuel..."
E|-----------13-------13----|-----------14-------14----|-----------13-------13----|--------------------------|
B|-----14-------14----------|-----14-------14----------|-----14-------14----------|--------------------------|
G|--15----15-------15-------|--------------------------|--------------------------|--13/15----13-------------|
D|--------------------------|--16----16-------16-------|--15----15-------15-------|-----------------15----13-|
A|--------------------------|--------------------------|--------------------------|--------------------------|
E|--------------------------|--------------------------|--------------------------|--------------------------|

E|-----------13-------13----|-----------14-------14----|-----------13-------13----|--------------------------|
B|-----14-------14----------|-----14-------14----------|-----14-------14----------|--------------------------|
G|--15----15-------15-------|--------------------------|--------------------------|--13/15----13-------------|
D|--------------------------|--16----16-------16-------|--15----15-------15-------|-----------------15----13-|
A|--------------------------|--------------------------|--------------------------|--------------------------|
E|--------------------------|--------------------------|--------------------------|--------------------------|

REFRÃO - "...Galileu..." 4x

E|--9-----9-----9-----9-----|--9-----9-----9-----9-----|--9-----9-----9-----9-----|--8-----8-----8-----8-----|
B|-----9-----9-----9-----9--|-----7-----7-----7-----7--|-----9-----9-----9-----9--|-----9-----9-----9-----9--|
G|--------------------------|--------------------------|--------------------------|--------------------------|
D|--------------------------|--------------------------|--------------------------|--------------------------|
A|--------------------------|--------------------------|--------------------------|--------------------------|
E|--------------------------|--------------------------|--------------------------|--------------------------|

REPETE INTRO

VOLTA ESTROFE 2 - "...Eu me rendo..."

E|--6-----------------------|--2-----------------------|--4-----------------------|--4-----------------------|
B|--7-----------------------|--2-----------------------|--6-----------------------|--4-----------------------|
G|--8-----------------------|--3-----------------------|--6-----------------------|--5-----------------------|
D|--8-----------------------|--4-----------------------|--6-----------------------|--6-----------------------|
A|--6-----------------------|--4-----------------------|--4-----------------------|--6-----------------------|
E|--------------------------|--2-----------------------|--------------------------|--4-----------------------|

E|--6-----------------------|--2-----------------------|--4-----------------------|--4-----------------------|
B|--7-----------------------|--2-----------------------|--6-----------------------|--4-----------------------|
G|--8-----------------------|--3-----------------------|--6-----------------------|--5-----------------------|
D|--8-----------------------|--4-----------------------|--6-----------------------|--6-----------------------|
A|--6-----------------------|--4-----------------------|--4-----------------------|--6-----------------------|
E|--------------------------|--2-----------------------|--------------------------|--4-----------------------|

VOLTA PONTE - "...Deus Emanuel..."
E|-----------13-------13----|-----------14-------14----|-----------13-------13----|--------------------------|
B|-----14-------14----------|-----14-------14----------|-----14-------14----------|--------------------------|
G|--15----15-------15-------|--------------------------|--------------------------|--13/15----13-------------|
D|--------------------------|--16----16-------16-------|--15----15-------15-------|-----------------15----13-|
A|--------------------------|--------------------------|--------------------------|--------------------------|
E|--------------------------|--------------------------|--------------------------|--------------------------|

E|-----------13-------13----|-----------14-------14----|-----------13-------13----|--------------------------|
B|-----14-------14----------|-----14-------14----------|-----14-------14----------|--------------------------|
G|--15----15-------15-------|--------------------------|--------------------------|--13/15----13-------------|
D|--------------------------|--16----16-------16-------|--15----15-------15-------|-----------------15----13-|
A|--------------------------|--------------------------|--------------------------|--------------------------|
E|--------------------------|--------------------------|--------------------------|--------------------------|

VOLTA REFRÃO - "...Galileu..." 4x
E|--9-----9-----9-----9-----|--9-----9-----9-----9-----|--9-----9-----9-----9-----|--8-----8-----8-----8-----|
B|-----9-----9-----9-----9--|-----7-----7-----7-----7--|-----9-----9-----9-----9--|-----9-----9-----9-----9--|
G|--------------------------|--------------------------|--------------------------|--------------------------|
D|--------------------------|--------------------------|--------------------------|--------------------------|
A|--------------------------|--------------------------|--------------------------|--------------------------|
E|--------------------------|--------------------------|--------------------------|--------------------------|

PONTE 2 - "...Oh oh oh..." - 2x

E|--------------------------|--------------------------|--------------------------|--------------------------|
B|---9/11-11-11-11-11-11-11-|--11/13-13-13-13-13-13-13-|--13/14-14-14-14-14-14-14-|--------------------------|
G|--------------------------|--------------------------|--------------------------|--12/13-13-13-13-13-13-13-|
D|--------------------------|--------------------------|--------------------------|--------------------------|
A|--------------------------|--------------------------|--------------------------|--------------------------|
E|--------------------------|--------------------------|--------------------------|--------------------------|

VOLTA REFRÃO - "...Galileu..." (2 primeiras sem guitarra) 2x
E|--9-----9-----9-----9-----|--9-----9-----9-----9-----|--9-----9-----9-----9-----|--8-----8-----8-----8-----|
B|-----9-----9-----9-----9--|-----7-----7-----7-----7--|-----9-----9-----9-----9--|-----9-----9-----9-----9--|
G|--------------------------|--------------------------|--------------------------|--------------------------|
D|--------------------------|--------------------------|--------------------------|--------------------------|
A|--------------------------|--------------------------|--------------------------|--------------------------|
E|--------------------------|--------------------------|--------------------------|--------------------------|

FINAL
tabs and chords, guitar tabs, music transcription, music technology, deep learning, music information retrieval, transcribe into tabs & chords, chordify, music renditions, songsterr, reverbnation, tabulature, bollywood chords, ultimate guitar, yousician, guitar lessons, acoustic guitar, electric guitar, guitar tuner, 911 tabs