Guitar Tabs for Amanga Guitarra Solo

(/) Slide Up  (\) Slide Down  (h) Hammer On  (p) Pull Off  (b) Bend (r) Release (v) Vibrato (x) Muted

Tabs for Song : 
BPM : 200

Song lyrics here
E|--12v---------10v---------12v---------10v---9v----------------
B|--13v---------12v---------13v---------12v---8v----------------
G|--10v---------12v---------10v---------12v---9v----------------
D|--12v---------12v---------12v---------12v---9v----------------
A|--------------------------------------------------------------
E|--------------------------------------------------------------

E|--------------------------------------------8v----6v----------
B|--------6v----------8v----------10v---------------------10v---
G|--7v----------7v----------7v----------7v----------------------
D|--------------------------------------------------------------
A|--------------------------------------------------------------
E|--------------------------------------------------------------

E|--12-12-------------17v
B|--13-13----15-15----17v
G|--10-10----15-15----17v
D|--12-12----15-15----15v
A|-----------13-13-------
E|-----------------------

E|--------------------------------------12-12----12-12----------------------17-17----17-17-
B|--------------------------------------13-13----13-13----15-15----15-15----17-17----17-17-
G|--10-10-10-10-10-10-10-10-10-10-10-10-10-10----10-10----15-15----15-15----17-17----17-17-
D|--------------------------------------12-12----12-12----15-15----15-15----15-15----15-15-
A|--------------------------------------------------------13-13----13-13-------------------
E|-----------------------------------------------------------------------------------------

E|--
B|--
G|--
D|--
A|--
E|--

Song lyrics here
E|--
B|--
G|--
D|--
A|--
E|--

Paste any tab in acousterr's tab maker and we'll play it !!!
Now supports capo and sound effects for vibrato/pull-off/hammer/bends/mutes etc !!! Checkout help section
tabs and chords, guitar tabs, music transcription, music technology, deep learning, music information retrieval, transcribe into tabs & chords, chordify, music renditions, songsterr, reverbnation, tabulature, bollywood chords, ultimate guitar, yousician, guitar lessons, acoustic guitar, electric guitar, guitar tuner, 911 tabs