Guitar Tabs for Friendship (solo)- Chris Stapleton

(/) Slide Up  (\) Slide Down  (h) Hammer On  (p) Pull Off  (b) Bend (r) Release (v) Vibrato (x) Muted

Tabs for Song : 

Song lyrics here
E|--------------------------------------------------------------
B|--------------------------------------------------------------
G|-----------------------------------------5--5--5------7/9--5--
D|-----------------------------5--5--5--7-----------7-----------
A|--------3---5h-7p-5\3---5/7-----------------------------------
E|--3--5--------------------------------------------------------

E|--------------------------------------------------------
B|--------------------------------------------------------
G|---7b9--9--7--------5--7--5--9---9p7--------------------
D|--------------7--7--------------------10-7---7h10-10-10-
A|--------------------------------------------------------
E|--------------------------------------------------------

E|-----------------------------------------------
B|-----------------------13-13-16\15-16\15-13-13-
G|------7/12-12-12-12h14-------------------------
D|--10-------------------------------------------
A|-----------------------------------------------
E|-----------------------------------------------

E|--------------------------------------------------------------------
B|--------15-15-15\13-13-13-13\10-10-10-10\8--------------------------
G|--12/14-14-14-14\12-12-12-12\9--9--9---9\7---7/9-7\5-----5----------
D|---------------------------------------------7/9-7\5-7p5-5----------
A|--------------------------------------------------------------------
E|--------------------------------------------------------------------



Song lyrics here
E|--
B|--
G|--
D|--
A|--
E|--

Paste any tab in acousterr's tab maker and we'll play it !!!
Now supports capo and sound effects for vibrato/pull-off/hammer/bends/mutes etc !!! Checkout help section
tabs and chords, guitar tabs, music transcription, music technology, deep learning, music information retrieval, transcribe into tabs & chords, chordify, music renditions, songsterr, reverbnation, tabulature, bollywood chords, ultimate guitar, yousician, guitar lessons, acoustic guitar, electric guitar, guitar tuner, 911 tabs