Guitar Tabs for Might As Well Get Stoned (solo)- Chris Stapleton

(/) Slide Up  (\) Slide Down  (h) Hammer On  (p) Pull Off  (b) Bend (r) Release (v) Vibrato (x) Muted

Tabs for Song : 

Song lyrics here
E|-----------------------------------------------------------------------------------------------------------------
B|-----------------------------------------------------------------------------------------------------------------
G|--------------------------------------------------------------------------------------------------12-------------
D|---------------------------------------------------------------------------------------------7/14----12\10-------
A|--------------3------------5p3---5p3--0---3/5---3/5---3/5---5\0---------------3/7--5---5h7-----------------12-12-
E|--5--5--3--5-----5--3--5-----------------------------------------0--0---3h5--------------------------------------

E|--------------------------------------------------------------------------------------------
B|--------------------------------------------------------------------------------------------
G|-----------------------------------------------------------------------12\9--9--9--9--8--7--
D|--10-12-12----10b11-------10-10-10----10-------10-12-12-10-12-10----------------------------
A|-----------12-------12-12----------12----12-12-------------------12-12----------------------
E|--------------------------------------------------------------------------------------------

E|-----------------------------------------
B|--------------12b13-9--------------------
G|-----12-14-12----------11-9--11----------
D|--14----------------------------11\9--7--
A|-----------------------------------------
E|-----------------------------------------

Song lyrics here
E|--
B|--
G|--
D|--
A|--
E|--

Paste any tab in acousterr's tab maker and we'll play it !!!
Now supports capo and sound effects for vibrato/pull-off/hammer/bends/mutes etc !!! Checkout help section
tabs and chords, guitar tabs, music transcription, music technology, deep learning, music information retrieval, transcribe into tabs & chords, chordify, music renditions, songsterr, reverbnation, tabulature, bollywood chords, ultimate guitar, yousician, guitar lessons, acoustic guitar, electric guitar, guitar tuner, 911 tabs