Guitar Tabs for Fáradt Vagyok Unatkozom //

(/) Slide Up  (\) Slide Down  (h) Hammer On  (p) Pull Off  (b) Bend (r) Release (v) Vibrato (x) Muted

Tabs for Song : 

Fáradt vagyok unatkozom,..már nem érdekel senki~ Ide való vagyok...egy könnyelm? világba~
E|-----------------------------------------------------------------------------------------------------------------------------
B|-----------------------------------------------------------------------------------------------------------------------------
G|-----------------------------------------------------------------------------------------------------------------------------
D|-----------------------------------------------------------------------------------------------------------------------------
A|-----10-9--10-9--10-9--7--6--------7--10-9--10-12-14v------13v---------14-13-14-13-14-11v------11-14-13-14-16-14v---11v---13v
E|-----------------------------------------------------------------------------------------------------------------------------
Ott ahol minden össze veszve...csakúgy néma~
E|--------------------------------------------------------------------------
B|--------------------------------------------------------------------------
G|--------------------------------------------------------------------------
D|--------------------------------------------------------------------------
A|---------9/10-10-12-14-11-11-6--7--9--------10/12-10/12-------10v---7v----
E|--------------------------------------------------------------------------
De ez az asszony hazug ember~ Betanita, adj esélyt, nékem~
E|--------------------------------------------------------------------------------------------------------
B|--------------------------------------------------------------------------------------------------------
G|--------------------------------------------------------------------------------------------------------
D|--------------------------------7--7--10v---------7v----------9---7/9--------5--5--4--------------------
A|--------6--7--9--10-7v-------------------------------------------------------------------------4-----5v-
E|--------------------------------------------------------------------------------------------------------
De ez az asszony hazugsága ~ Betanita, adj esélyt, nékem~

E|--------------------------------------------------------------------------------------------------------
B|--------------------------------------------------------------------------------------------------------
G|--------------------------------------------------------------------------------------------------------
D|--------------------------------7--7--10v---------7v----------9---7/9--------5--5--4--------------------
A|--------6--7--9--10-7v-------------------------------------------------------------------------4-----5v-
E|--------------------------------------------------------------------------------------------------------
De megpróbálnám én a m?ltat...de szivemb?l kitépni ~ Mindent megpróbálnék...egy új életet élni~
E|-----------------------------------------------------------------------------------------------------------------------------------------------
B|-----------------------------------------------------------------------------------------------------------------------------------------------
G|-----------------------------------------------------------------------------------------------------------------------------------------------
D|--------------10-9--10-9--10-9--10----7--------9--10-9--10-12-10v---7-----9v----------9--10-9--10-9--10-7--------7--10-9--10-12-10v---7-----9v-
A|-----------------------------------------------------------------------------------------------------------------------------------------------
E|-----------------------------------------------------------------------------------------------------------------------------------------------
Én a múltat... de nem is bánom~                                     De sosem gondolok rád~
E|-----------------------------------------------------------------------------------------
B|-----------------------------------------------------------------------------------------
G|-----------------------------------------------------------------------------------------
D|--------7-----9--10-7--------7--7--5--7v----4v-------------------8--9--9-----9--7--9--5--
A|-----------------------------------------------------------------------------------------
E|-----------------------------------------------------------------------------------------
De oda járok...felejteni!De csakhogy... de néhané...jaaajj...~
E|-----------------------------------------------------------------------------------------------
B|-----------------------------------------------------------------------------------------------
G|-----------------------------------------------------------------------------------------------
D|--------------------------------7--7--10v------7v-------9------7/9--------5--5--4--------------
A|-----------6--7--9--10-7-----------------------------------------------------------------4--5v-
E|-----------------------------------------------------------------------------------------------
Mert akik engem kinevettek...de kigúnyoltak engem...~ Kikacagtak,..leköbdöstek...jaaajj...~
E|-----------------------------------------------------------------------------------------------------------------------
B|-----------------------------------------------------------------------------------------------------------------------
G|-----------------------------------------------------------------------------------------------------------------------
D|-----------------------------------------------------------------------------------------------------------------------
A|-----------10-10-10-10-9--10-9--10-7-----7--10-9--10-12-10----9v----------------14-13-14-11-------14-13-14v---11v---13v
E|-----------------------------------------------------------------------------------------------------------------------
De ez az asszony..hazugsága!~ Betanita, adj esélyt...nékem...~
E|-----------------------------------------------------------------------------------------------
B|-----------------------------------------------------------------------------------------------
G|-----------------------------------------------------------------------------------------------
D|--------------------------------7--7--10v------7v-------9---7/9--------5--5--4-----------------
A|-----------6--7--9--10-7-----------------------------------------------------------------4--5v-
E|-----------------------------------------------------------------------------------------------
Mert nem való vagyok én...egy úri társaságba...~                               Ide való vagyok...Tusé falujába...~
E|-----------------------------------------------------------------------------------------------------------------------------------
B|-----------------------------------------------------------------------------------------------------------------------------------
G|-----------------------------------------------------------------------------------------------------------------------------------
D|--------------------------------------------------7--5v-------4--------------10-9--10-9--10-7--------7--10-9--10-12-10----7-----9--
A|-----------10-10-9--10-9--7--6--------7--10-9--10----------------------------------------------------------------------------------
E|-----------------------------------------------------------------------------------------------------------------------------------

Én a múltat...de nem is bánom...~                      De sosem gondolok rád!~
E|--------------------------------------------------------------------------------
B|--------------------------------------------------------------------------------
G|--------------------------------------------------------------------------------
D|-----------7-----9--10-7--------7--7--5--7-----4v-------8--9--9-----9--7--9--5--
A|--------------------------------------------------------------------------------
E|--------------------------------------------------------------------------------
De oda járok...felejteni!~                                      De Tusé...falujá...ába...~
E|-----------------------------------------------------------------------------------------------------------------
B|-----------------------------------------------------------------------------------------------------------------
G|-----------------------------------------------------------------------------------------------------------------
D|--------------------------------------7--7--10v------7v-------9---7/9--------5--5--4-----------------------------
A|--------------6--7--9--10-7-----------------------------------------------------------------4--5v----------------
E|-----------------------------------------------------------------------------------------------------------------

Paste any tab in acousterr's tab maker and we'll play it !!!
Now supports capo and sound effects for vibrato/pull-off/hammer/bends/mutes etc !!! Checkout help section
tabs and chords, guitar tabs, music transcription, music technology, deep learning, music information retrieval, transcribe into tabs & chords, chordify, music renditions, songsterr, reverbnation, tabulature, bollywood chords, ultimate guitar, yousician, guitar lessons, acoustic guitar, electric guitar, guitar tuner, 911 tabs