Guitar Tabs for Indigo 2

(/) Slide Up  (\) Slide Down  (h) Hammer On  (p) Pull Off  (b) Bend (r) Release (v) Vibrato (x) Muted

Tabs for Song : 

Song lyrics here
E|--------10----------------------------------------------10----------------------------------------------------10-------------------------------------------------------
B|-----10----13----11-10----8-----10-------------------10----13----11-10----8------8/10-10-------------------10----13----11-10--------------------9/10-------------------
G|--------------------------------------------------------------------------------------------------------------------------------12----10----12-------12----------9--10-
D|--12----------------------------------------------12----------------------------------------------------12--------------------------------------------------9/12-------
A|-----------------------------------------------------------------------------------------------------------------------------------------------------------------------
E|-----------------------------------------------------------------------------------------------------------------------------------------------------------------------

Song lyrics here
E|--------------------------
B|------8/10----------------
G|-----------12----10\9-----
D|-----------------------12-
A|--------------------------
E|--------------------------

E|-----------------10----------------------------------------------10----------------------------------------------------10-------------------------------------------------------------------------------
B|--------------10----13----11-10----8-----10-------------------10----13----11-10----8------8/10-10-------------------10----13----11-10--------------------9/10-----------------------8/10----------------
G|-----------------------------------------------------------------------------------------------------------------------------------------12----10----12-------12----------9--10----------12----10\9-----
D|-----------12----------------------------------------------12----------------------------------------------------12--------------------------------------------------9/12----------------------------12-
A|--------------------------------------------------------------------------------------------------------------------------------------------------------------------------------------------------------
E|--------------------------------------------------------------------------------------------------------------------------------------------------------------------------------------------------------

E|-----------------10----------------10----12----13-6------------5h-6h5--------------
B|-----------------10----------------10----12----13-6--------------------8--6---6/8--
G|-----------------------------------------------------------------------------------
D|-----------------------------------------------------------------------------------
A|-----------------------------------------------------------------------------------
E|-----------------------------------------------------------------------------------

E|--------------10----------------10----12----13-6-----------14-14-14p13-13-13-13p11-11-11p9--7--5--------
B|--------------10----------------10----12----13-6--------------------------------------------------------
G|--------------------------------------------------------------------------------------------------------
D|--------------------------------------------------------------------------------------------------------
A|--------------------------------------------------------------------------------------------------------
E|--------------------------------------------------------------------------------------------------------

E|-----------10----------------9-----9--10----12-12/13----12----10-8---8/10-
B|-----------10-------------------------------------------------------------
G|--------------------------------------------------------------------------
D|--------------------------------------------------------------------------
A|--------------------------------------------------------------------------
E|--------------------------------------------------------------------------

E|-----------------------------------------------------------------------
B|-----------------------------------8---8/10-8--------------------------
G|-----------------9--10-------------------------------------10-10\9-----
D|-----------10/12----------------------------------------------------12-
A|-----------------------------------------------------------------------
E|-----------------------------------------------------------------------
repeat amd sooner do this
E|--------------------------------------------------------
B|--------------------------------------------------------
G|--------------------------------------------------------
D|-----------------10/12-12-12-10-10-10-8--8--8--7--7--7--
A|--------------------------------------------------------
E|--------------------------------------------------------





Paste any tab in acousterr's tab maker and we'll play it !!!
Now supports capo and sound effects for vibrato/pull-off/hammer/bends/mutes etc !!! Checkout help section
tabs and chords, guitar tabs, music transcription, music technology, deep learning, music information retrieval, transcribe into tabs & chords, chordify, music renditions, songsterr, reverbnation, tabulature, bollywood chords, ultimate guitar, yousician, guitar lessons, acoustic guitar, electric guitar, guitar tuner, 911 tabs