Bass Tabs for Foo Fighters - This Is A Call

Foo Fighters - This Is A Call

Verse
G|-----------------------------------------
D|-----------------------------------------
A|--------7--------7--------7-----------5--
E|--0--0-----0--0-----0--0-----0--7--7-----

G|-----------------------------------------------------------------
D|-----------------------------------------------------------------
A|-----------------------------------------------------------------
E|--3--3--3--3--3--3--3--3--5--5--5--0--0--0--0--0--0--0--0--7--7--

Chorus
G|-----------------------------------------------
D|-----------------------------------------------
A|-----------------------------------------------
E|--2--2--2--2--2--5--5--5--5--5--0--0--0--0--0--

Bridge
G|-----------------------------
D|-----------------------------
A|-----7-----------2--5--------
E|--0-----3--4--5--------3--3--

Outro
G|--------------------------
D|--------------------------
A|--------5--------5--4--5--
E|--0--0-----0--0-----------

G|-----------------
D|-----------------
A|-----------------
E|--3--------0--0--
tabs and chords, guitar tabs, music transcription, music technology, deep learning, music information retrieval, transcribe into tabs & chords, chordify, music renditions, songsterr, reverbnation, tabulature, bollywood chords, ultimate guitar, yousician, guitar lessons, acoustic guitar, electric guitar, guitar tuner, 911 tabs