Bass Tabs for Foo Fighters - The Sky Is A Neighbourhood

Foo Fighters - The Sky Is A Neighbourhood

Intro
G|-----------
D|-----------
A|-----------
E|--0--3--5--

No BASS

Pre-Chorus
G|--------------
D|--------------
A|--------------
E|--0--3--0--3--

Chorus
G|-----------------------------------------------------------------------------------------------
D|----------------------------------------------------------------------------------------------- 3x
A|--------------2--2--2-----------------------------3--3--3-----------2--------------------------
E|--0--0--0-----------------3--3--3-----5--5--5-----------------0--0--0--5--5--5--5--5--5--0--3--

G|--------------------
D|--------------------
A|-----------0---5h7--
E|--0---5h7-----------

Verse
G|--------------------------------------------------------------------------------
D|--------------------------------------------------------------------------------
A|---7\2---2r---------------------3---3r------------------------------------------
E|--------------3---3r---5---5r------------0---0r---5---5r---5---5r---0--3--0--3--

G|--------------------------------------------------------------------------------------------
D|--------------------------------------------------------------------------------------------
A|--7---7r------6---6r---5---5r---4---4r---3---3r-5/7-----------------------------------------
E|-----------------------------------------------------0---0r---5---5r---5---5r---0--3--0--3--

Bridge
G|--------------------------------------------------------------------------
D|--------------------------------------------------------------------------
A|--3--3--3--3--7--7--7--7--5--5--5--5--------------------------------------
E|--------------------------------------5--5--5--5--3--3--3--3--2--2--1--1--
tabs and chords, guitar tabs, music transcription, music technology, deep learning, music information retrieval, transcribe into tabs & chords, chordify, music renditions, songsterr, reverbnation, tabulature, bollywood chords, ultimate guitar, yousician, guitar lessons, acoustic guitar, electric guitar, guitar tuner, 911 tabs