Bass Tabs for Foo Fighters - Low

Foo Fighters - Low

Verse
G|--------------------------------------------------------------
D|--------------------------------------------------------------
A|--------------------------------------------------------------
D|--5--5--5--5--5--5--5--5--5-----------4--4--4--4--4--4--4--4--

Pre-Chorus
G|-----------------------------------------------------------------------------------------------
D|-----------------------------------------------------------------------------------------------
A|-----------------------------------------------------------------------------------------------
D|--5--5--5--5--5--5--5--5--5--5--4--4--4--4--4--4--4--8--8--8--8--8--8--8--8--2--2--2--2--2--2--

Chorus
G|-----------------------------------------------------
D|-----------------------------------------------------
A|--------------3--3--3--3-----------------3--3--3--3--
D|--1--1--1--1--------------1--1--1--1--1--------------

Solo
G|-----------------------------------------------------------------------------------------------
D|-----------------------------------------------------------------------------------------------
A|-----------------------------------------------------------------------------------------------
D|--5--5--5--5--5--5--5--5--5--5--4--4--4--4--4--4--4--8--8--8--8--8--8--8--8--2--2--2--2--2--2--
tabs and chords, guitar tabs, music transcription, music technology, deep learning, music information retrieval, transcribe into tabs & chords, chordify, music renditions, songsterr, reverbnation, tabulature, bollywood chords, ultimate guitar, yousician, guitar lessons, acoustic guitar, electric guitar, guitar tuner, 911 tabs