Bass Tabs for Foo Fighters - Long Road To Ruin

Foo Fighters - Long Road To Ruin

Intro Has NO BASS

Verse
G|-------------------|-----------------|--------------------|-----------------|
D|-------------------|---------00002222|--------------------|-----------------|
A|-3333333333333-----|33333333---------|---------------333--|---------33335555|
E|--------------333--|-----------------|1111111111111-------|11111111---------| 

G|-------------------|
D|-------------------|
A|-3333333333333333--|
E|-------------------|

Bridge
G|-------------------|-----------------|-----------------|-----------------|
D|-------------------|-----------------|-----------------|-----------------|
A|-000----00222----22|333---33222----22|000---00222----22|333---3355555555-|
E|-----111------333--|---555------333--|---111------333--|---555-----------|

Chorus
G|-------------------|-----------------|-----------------|-----------------|
D|-33333333----------|33333333---------|-----------------|-----------------|
A|-----------33333333|---------33333-2-|0000000055555555-|---------00002222|
E|-------------------|-----------------|-----------------|11113333---------|
 
Verse
G|-------------------|-----------------|--------------------|-----------------|
D|-------------------|---------00002222|--------------------|-----------------|
A|-3333333333333-----|33333333---------|---------------333--|---------33335555|
E|--------------333--|-----------------|1111111111111-------|11111111---------|

G|-------------------|-----------------|--------------------|-----------------|
D|-------------------|---------00002222|--------------------|-----------------|
A|-3333333333333-----|33333333---------|---------------333--|-----------------|
E|--------------333--|-----------------|1111111111111-------|1111111111111111-|  


Bridge
G|-------------------|-----------------|-----------------|-----------------|
D|-------------------|-----------------|-----------------|-----------------|
A|-0------0--2-----2-|3--0--3--2-----2-|0-----0--2-----2-|3--0--3--55555555|
E|-----1--------3----|------------3----|---1--------3----|-----------------|

Chorus
G|-------------------|-----------------|-----------------|
D|-33333333----------|33333333---------|-----------------|
A|-----------33333333|---------33333-2-|0000000055555555-|
E|-------------------|-----------------|-----------------| 

G|-------------------|-----------------|-----------------|-----------------|
D|-33333333----------|33333333---------|-----------------|-----------------|
A|-----------33333333|---------33333-2-|0000000055555555-|---------00002222|
E|-------------------|-----------------|-----------------|11113333---------|
  
Slow Part
G|-------------------|-----------------|
D|-------------------|-----------------|
A|-3---------2-------|3--------2-------|
E|-------------------|-----------------|

G|-------------------|-----------------|-----------------|-----------------|
D|-------------------|-----------------|-----------------|-----------------|
A|-3---------2-------|7--------5-------|3--------2-------|0----------------|
E|-------------------|-----------------|-----------------|---------3-------|

Bridge
G|-------------------|-----------------|-----------------|-----------------|
D|-------------------|-----------------|-----------------|-----------------|
A|-0------0--2-----2-|3--0--3--2-----2-|0-----0--2-----2-|---------55555555|
E|-----1--------3----|------------3----|---1--------3----|-----------------|


Solo
G|-------------------|-----------------|-----------------|
D|-33333333----------|33333333---------|-----------------|
A|-----------33333333|---------33333-2-|0000000055555555-|
E|-------------------|-----------------|-----------------|
  

G|-------------------|-----------------|-----------------|
D|-33333333----------|33333333---------|-----------------|
A|-----------33333333|---------33333-2-|0000000055555555-|
E|-------------------|-----------------|-----------------|
 
Chorus
G|-------------------|-----------------|-----------------|
D|-33333333----------|33333333---------|-----------------|
A|-----------33333333|---------33333-2-|0000000055555555-|
E|-------------------|-----------------|-----------------|
   
G|-------------------|-----------------|-----------------|
D|-33333333----------|33333333---------|-----------------|
A|-----------33333333|---------33333-2-|0000000055555555-|
E|-------------------|-----------------|-----------------|
  
G|-------------------|-----------------|-----------------|
D|-33333333----------|33333333---------|-----------------|
A|-----------33333333|---------33333-2-|0000000055555555-|
E|-------------------|-----------------|-----------------|
 
Ending
G|-------------------|-----------------|-----|
D|-------------------|-----------------|-----|
A|-----------00002222|---------00002222|3v---|
E|-11113333----------|11113333---------|-----|
     
tabs and chords, guitar tabs, music transcription, music technology, deep learning, music information retrieval, transcribe into tabs & chords, chordify, music renditions, songsterr, reverbnation, tabulature, bollywood chords, ultimate guitar, yousician, guitar lessons, acoustic guitar, electric guitar, guitar tuner, 911 tabs