Bass Tabs for Foo Fighters - Dear Rosemary

Foo Fighters - Dear Rosemary

Intro
G|-----------------------------------------------------
D|-----------------------------------------------------  4x
A|--2--2--2--2--2--------------------------------------
E|-----------------5--5--5--5--3--3--3--3--0--0--0--0--

G|--------------------------------------------------------------------------------
D|--------------------------------------------------------------------------------
A|--2-----2--0-----0-----------------0--2-----2--0-----0--------------------------
E|--------------------3-----3--0--------------------------3-----3--0--0--0--0--0--

Verse
G|--------------------------------------------------------------------
D|--------------------------------------------------------------------
A|--2-----2--0-----0-----------------0--2-----2--0-----0--------------
E|--------------------3-----3--0--------------------------3-----3--0--

G|-----------------------------------------------------------------------------
D|-----------------------------------------------------------------------------
A|--2-----2--0-----0-----------------0--2-----2--0-----0-----------------------
E|--------------------3-----3--0--------------------------3-----3--0--0--0--0--

G|--------------
D|--------------  2x
A|---2/-7/10\7-- 
E|--------------

G|--------------------------------------------------------------------
D|--------------------------------------------------------------------
A|--2-----2--0-----0-----------------0--2-----2--0-----0--------------
E|--------------------3-----3--0--------------------------3-----3--0--

Pre-Chorus
G|-----------------------------------------------------------------------------
D|-----------------------------------------------------------------------------
A|--2-----2--0-----0--2-----2--0-----0--2-----2--0-----0--2--2--2--2--2--2--2--
E|-----------------------------------------------------------------------------

Chorus
G|-----------------------------------------------------------------------------------------
D|-----------------------------------------------------------------------------------------  2x
A|-----------------------------------------------------------------------------------------
E|--3--3--3--3--3--3--3--3--5--5--5--5--5--5--5--7--7--7--7--7--7--7--5--5--5--5--5--5--5--

G|--------------------------------------
D|--------------------------------------
A|--------------------------------------
E|--3--3--3--3--3--3--5--5--5--5--5--5--

G|--------------------------------------------------
D|--------------------------------------------------  6x
A|--2--2--2--2--2--2--------------------------------
E|--------------------5--5--5--3--3--3--0--0--0--0--

Verse

Pre-Chorus

Chorus

Bridge
G|--------------------------------------------------------------
D|--------------------------------------------------------------  3x
A|--------------------------------------------------------------
E|--3--3--3--3--3--3--3--5--5--5--5--7--7--7--7--5--5--5--5--5--

G|--------------------------------------------------------------------------------------
D|--------------------------------------------------------------------------------------
A|--------------------------------------------------------------------------------------
E|--3--3--3--3--3--3--3--0--0--0--0--0--0--0--0--0--0--0--0--0--0--0--0--0--0--0--0--0--

Last Chorus (After Bridge)
G|--------------------------------------------------------------
D|--------------------------------------------------------------  8x
A|--2--2--2--2--2--2--2-----------------------------------------
E|-----------------------5--5--5--5--3--3--3--3--3--0--0--0--0--

Outro
G|--------------------------------------------------------------------------------
D|--------------------------------------------------------------------------------
A|--2-----2--0-----0-----------------0--2-----2--0-----0--------------------------
E|--------------------3-----3--0--------------------------3-----3--0--0--0--0--0--

G|-----------------------------------------------------------------
D|-----------------------------------------------------------------
A|--2-----2--0-----0-----------------0--2-----2--0-----0--------0--
E|--------------------3-----3--0--------------------------3--------

G|--------------------------------
D|--------------------------------
A|--2-----2--0-----0--------------
E|--------------------3-----3--0--

tabs and chords, guitar tabs, music transcription, music technology, deep learning, music information retrieval, transcribe into tabs & chords, chordify, music renditions, songsterr, reverbnation, tabulature, bollywood chords, ultimate guitar, yousician, guitar lessons, acoustic guitar, electric guitar, guitar tuner, 911 tabs