Bass Tabs for Foo Fighters - Big Me

Foo Fighters - Big Me

Verse
G|--------------------------------------------------------------------
D|------------3/5-----------------------------------------------------
A|--3--0--3---------------5/7-----------------------------------------
E|-----------------5--0--------5--5--4--3--3---3/5--3--1--1--1--0--1--

Pre-Chorus
G|--------------------------------------------
D|--------------------------------------------
A|-----------------------------3--3--3--3--3--
E|--0--0--0--0--0--1--1--1--1-----------------

G|-----------------------------------------------------------------
D|-----------------------------------------------------------------
A|--7--7--7--7--7--8--8--8--8--8--8--8--8--8--8--8--10-10-10-10-10-
E|-----------------------------------------------------------------

Chorus
G|--------------------------------------------------------------------
D|------------3/5-----------------------------------------------------
A|--3--0--3---------------5/7-----------------------------------------
E|-----------------5--0--------5--5--4--3--3---3/5--3--1--1--1--0--1--

G|-----------------------------------------------------------------------
D|-----------------------------------------------------------------------
A|--3--3--3--3--3-----------------------3--3--3--3-----------------------
E|-----------------3--3--3--3--1--1--1--------------3--3--3--3--3--3--3--

Final
G|--------
D|--------
A|---3/15-
E|--------
tabs and chords, guitar tabs, music transcription, music technology, deep learning, music information retrieval, transcribe into tabs & chords, chordify, music renditions, songsterr, reverbnation, tabulature, bollywood chords, ultimate guitar, yousician, guitar lessons, acoustic guitar, electric guitar, guitar tuner, 911 tabs