Bass Tabs for Foo Fighters - All My Life

Foo Fighters - All My Life

Guitar Intro

Verse
G|-----------------------------------------------------------------------------------
D|-----------------------------------------------------------------------------------
A|-----------------------------------------------------------------------------------
E|--3--3--0--3--0--3--3--0--3--3--5--5--5-----3--3--0--3--0--3--3--0--3--3--6--6--6--

Chorus
G|-----------------------------------------------------------
D|-----------------------------------------------------------
A|-----------------------------------------------------------
E|--15\3--3--3--3--3--3--3--3--3-----3--3--3--3--3--3--3--3--

G|-----------------------------------------------------------
D|-----------------------------------------------------------
A|-----------------------------------------------------------
E|--0--0--0--0--0--0--0--1--1--1--1--1--1--6--6--6--6--6--6--

After Bridge
G|-----------------------------------------------------------
D|-----------------------------------------------------------
A|-----------------------------------------------------------
E|--3--3--3--3--3--3--3--3--3--3--3--3--3------3/15-15-15-15-

Ending
G|--------
D|--------
A|--------
E|--3--3--
tabs and chords, guitar tabs, music transcription, music technology, deep learning, music information retrieval, transcribe into tabs & chords, chordify, music renditions, songsterr, reverbnation, tabulature, bollywood chords, ultimate guitar, yousician, guitar lessons, acoustic guitar, electric guitar, guitar tuner, 911 tabs