Bass Tabs for Fear In Varieties Bass

(/) Slide Up  (\) Slide Down  (h) Hammer On  (p) Pull Off  (b) Bend (r) Release (v) Vibrato (x) Muted

Tabs for Song : 
BPM : 200

intro
F|--------------------------------------------------------------------------------
C|--------------------------------------------------------------------------------
G|--------------------------------------------------------------------------------
C|--3--3--3--3--3--0-----3--3--3--3--3--0-----3--3--3--3--3--0-----3--3--3--3--3--

F|--------------------------------------------------------------------------------
C|--------------------------------------------------------------------------------
G|--------------------------------------------------------------------------------
C|--0-----0-----0-----0-----5-----5-----3-----3-----0-----0-----0-----0-----------

F|--------------------------------------------------------------------------------
C|--------------------------------------------------------------------------------
G|--------------------------------------------------------------------------------
C|--3-----3-----3-----3-----6--6--6--6--6--6--6-----------------------------------

Chrous

F|-----------------------------------------------------------------------------------------
C|-----------------------------------------------------------------------------------------
G|--------------------------5-----------------------------------------------5--------------
C|--0--0--3--0--5--0--6--0-----6--5--0--3--5--6--5--0--0--3--0--5--0--6--0-----6--5--0--3--

F|-----------------------------------------------------------------------------------------------------
C|-----------------------------------------------------------------------------------------------------
G|--------------------------5-----------------------------------------------5--------5--------5--------
C|--0--0--3--0--5--0--6--0-----6--5--0--3--5--6--5--0--0--3--0--5--0--6--0-----6--0-----6--0-----6--0--


F|-----------------------------------------------------------------------------------------------
C|-----------------------------------------------------------------------------------------------
G|-----------------------------------------------3--5--------------------------5--3--------------
C|--0--0--0-----0--0-----0--0--0--0-----0--0--------------0--0--0--0--0-----0--------6--5--3--5--

Bass Break
F|-----------------------------------------------
C|-----------------------------------------------
G|-----5--------5--------5--------5--------5-----
C|--0-----3--0-----3--0-----3--0-----3--0-----3--

Verse

F|--------------------------------------------------
C|--------------------------------------------------
G|--------------------------------------------------
C|--0-----3--0--0--3--0--0--3--0--0--3--0--0---3/6--

F|--------------------------------------------------
C|--------------------------------------------------
G|--------------------------------------------------
C|--0-----3--0--0--3--0--0---3/8--8--7-----7--7-----

Bridge

F|-----------------------------------------------------------------------------------------------
C|-----------------------------------------------------------------------------------------------
G|-----------------------------------------------------------------------------------------------
C|--3-----5-----6-----2-----2--2--2--2--2--2--2--2--2--2--2--2--2--2--2--2-----------------------

outro

F|--------------------------------------------------
C|--------------------------------------------------
G|--------3--------------1--------------------------
C|--0--0-----0--1--0--0-----0--0--3--0--2--0--1--0--

F|--------------------------------------------------
C|--------------------------------------------------
G|--------------------------------------------------
C|--0-----------------------0-----------------------


Order:
intro
chorus
Bass Break
verse
bridge
chorus
Bass Break
Verse
Bridge
Chorus
Bridge
Chorus
Verse
Chorus
outro




Use manual mode to free up cursor. Paste any tab in acousterr tab maker and we'll play it !!!
tabs and chords, guitar tabs, music transcription, music technology, deep learning, music information retrieval, transcribe into tabs & chords, chordify, music renditions, songsterr, reverbnation, tabulature, bollywood chords, ultimate guitar, yousician, guitar lessons, acoustic guitar, electric guitar, guitar tuner, 911 tabs