Guitar Tabs for Without Fear


Tabs for Song : WITHOUT FEAR


INTRO

E|-----------------------------------------------------------------------------------------------------
B|-----------------------------------------------------------------------------------------------------
G|-----------------------------------------------------------------------------------------------------
D|-----------------------------------------------------------------------------------------------------
A|-----------------------------------------------------------------------------------------------------
D|--5--5-----3--5--5-----3--5--5-----3--5--5-----6--5--5-----3--5--5-----3--5--5-----3--5--5-----6-----

E|--------------------------------------------------------
B|--------------------------------------------------------
G|--------------------------------------------------------
D|--------------------------------------------------------
A|--------------------------------------------------------
D|--5--5--5--5-----5--5--5--5-----5--5-----5-----3-----6--

E|--------------------------------------------------------
B|--------------------------------------------------------
G|--------------------------------------------------------
D|--------------------------------------------------------
A|--------------------------------------------------------
D|--5--5--5--5-----5--5--5--5-----5--5-----5-----6-----3--

E|-----------------------------------------------------
B|-----------------------------------------------------
G|-----------------------------------------------------
D|-----------------------------------------------------
A|-----------------------------------------------------
D|--6--5--3-----6--5--3-----6--5--3-----6--5--3-----0--


COUPLET

E|-----------------------------------------------------------------
B|-----------------------------------------------------------------
G|-----------------------------------------------------------------
D|-----------------------------------------------------------------
A|-----------------------------------------------------------------
D|--0-----0--0-----3--5-----0--0--0--6-----0--0--0--0-----6--5--3--

E|-----------------------------------------------------------------
B|-----------------------------------------------------------------
G|-----------------------------------------------------------------
D|-----------------------------------------------------------------
A|-----------------------------------------------------------------
D|--0-----0--0-----3--5-----0--0--0--6-----0--0--0-----6--5--3--5--


REFRAIN 

E|--------------------------------
B|--------------------------------
G|--------------------------------
D|--------------------------------
A|--------------------------------
D|--1--0-----0--1--0-----5--3--6--

E|-----------------------------------
B|-----------------------------------
G|-----------------------------------
D|-----------------------------------
A|-----------------------------------
D|--1--0-----0--1--0-----6--5--3-----

Paste any tab in acousterr's tab maker and we'll play it !!!
Now supports capo and sound effects for vibrato/pull-off/hammer/bends/mutes etc !!! Checkout help section
tabs and chords, guitar tabs, music transcription, music technology, deep learning, music information retrieval, transcribe into tabs & chords, chordify, music renditions, songsterr, reverbnation, tabulature, bollywood chords, ultimate guitar, yousician, guitar lessons, acoustic guitar, electric guitar, guitar tuner, 911 tabs