Guitar Tabs for Fear In Varieties

(/) Slide Up  (\) Slide Down  (h) Hammer On  (p) Pull Off  (b) Bend (r) Release (v) Vibrato (x) Muted

Tabs for Song : 
BPM : 290

Song lyrics here
D|--------------------------------------------------------------------------------------------------
A|--------------------------------------------------------------------------------------------------
F|--------------------------------------------------------------------------------------------------
C|--------------------------------------------------------------------------------------------------
G|--------------------------5-----------------------------------------------5-----------------------
C|--0--0--3--0--5--0--6--0-----6--5--0--3--5--6--5--0--0--3--0--5--0--6--0-----6--5--0--3-----------

Song lyrics here

D|--------------------------------------------------------------------------------------------------
A|--------------------------------------------------------------------------------------------------
F|--------------------------------------------------------------------------------------------------
C|--------------------------------------------------------------------------------------------------
G|--------------------------5-----------------------------------------------5--------5--------5-----
C|--0--0--3--0--5--0--6--0-----6--5--0--3--5--6--5--0--0--3--0--5--0--6--0-----6--0-----6--0-----6--

Breakdown to Verse:
D|--------------------------------------------------------------------------------------------------=-
A|--------------------------------------------------------------------------------------------------
F|--------------------------------------------------------------------------------------------------
C|--------------------------------------------------------------------------------------------------
G|--------------------------------------------3--5---------------------------3h5--3-----------------
C|--0--0--0-----0--0-----0--0--0--0-----0--0--------0--0--0-----0--0-----0-----------6--5---3/5-----

D|--------------------------------------------------------------------------------------------------
A|--------------------------------------------------------------------------------------------------
F|--------------------------------------------------------------------------------------------------
C|--------------------------------------------------------------------------------------------------
G|--------------------------------------------3--5---------------------------3h5--3-----------------
C|--0--0--0-----0--0-----0--0--0--0-----0--0--------0--0--0-----0--0-----0-----------6--5---3\5--0--

Verse:
D|--------------------------------------------------
A|--------------------------------------------------
F|--------------------------------------------------
C|--------------------------------------------------
G|--------------------------------------------------
C|--0-----3--0--0--3--0--0--3--0--0--3--0--0---3/6--

D|-----------------------------------------------7
A|-----------------------------------------------
F|-----------------------------------------------
C|-----------------------------------------------
G|-----------------------------------------------
C|--0-----3--0--0--3--0--0---3/8--8--7-----7--7--

Bridge:
D|--------------------------------------------------------------------------
A|--------------------------------------------------------------------------
F|--------------------------------------------------------------------------
C|--------------------------------------------------------------------------
G|--------------------------------------------------------------------------
C|--3-----5-----6-----2-----2--2--2--2--2--2--2--2--2--2--2--2--2--2--2--2--

Outro Do this 4x:
D|--------------------------------------------------
A|--------------------------------------------------
F|--------------------------------------------------
C|--------------------------------------------------
G|--------3--------------1--------------------------
C|--0--0-----0--1--0--0-----0--0--3--0--2--0--1--0--

Big finish
D|-----------------0
A|-----------------
F|-----------------
C|-----------------
G|-----------------
C|--0-----------0--

Paste any tab in acousterr's tab maker and we'll play it !!!
Now supports capo and sound effects for vibrato/pull-off/hammer/bends/mutes etc !!! Checkout help section
tabs and chords, guitar tabs, music transcription, music technology, deep learning, music information retrieval, transcribe into tabs & chords, chordify, music renditions, songsterr, reverbnation, tabulature, bollywood chords, ultimate guitar, yousician, guitar lessons, acoustic guitar, electric guitar, guitar tuner, 911 tabs