Ukulele Tabs for Favorite Things

(/) Slide Up  (\) Slide Down  (h) Hammer On  (p) Pull Off  (b) Bend (r) Release (v) Vibrato (x) Muted

Tabs for Song : 

Song lyrics here
A|--0--7--7--2--0--0-----0--0--2--0-----0--7--7--2--0--0-----0--0--2--0-----0--7--5--0--2--------5--3--------
E|--------------------0-----------------------------------0--------------------------------3--3--------1-----
C|-----------------------------------------------------------------------------------------------------------
G|-----------------------------------------------------------------------------------------------------------

A|-----------0--2--3--5--7--5--8-----7--7--7--0--5--5--5-----3--3--3-----0-----0--0--2--0--2--0--2--3--5--3--5--
E|--0--1--3-----------------------------------------------4-----------0-----------------------------------------
C|--------------------------------------------------------------------------------------------------------------
G|--------------------------------------------------------------------------------------------------------------

A|--3--7--8--7--8--7--3--
E|-----------------------
C|-----------------------
G|--------------------

Song lyrics here
A|--
E|--
C|--
G|--

Paste any tab in acousterr's tab maker and we'll play it !!!
Now supports capo and sound effects for vibrato/pull-off/hammer/bends/mutes etc !!! Checkout help section
tabs and chords, guitar tabs, music transcription, music technology, deep learning, music information retrieval, transcribe into tabs & chords, chordify, music renditions, songsterr, reverbnation, tabulature, bollywood chords, ultimate guitar, yousician, guitar lessons, acoustic guitar, electric guitar, guitar tuner, 911 tabs