Guitar Tabs for Coco Things

(/) Slide Up  (\) Slide Down  (h) Hammer On  (p) Pull Off  (b) Bend (r) Release (v) Vibrato (x) Muted

Tabs for Song : 

Son|-----

-


E|-----0-----------------
B|--3-----3--1--0---1/3--
G|-----------------------
D|-----------------------
A|-----------------------
E|-----------------------



Song lyrics here
E|-----------------------------------------------------------------------------------------------------------------------------5---------5--8-
B|--------------------------------5--------------------------5-----------------------------------------3--5---3/7-----3--5--3--7-----7-----10-
G|-----5-----4-----------4--7--4-----4--4--5--4--------4--5-----5-----5--5-----5--7---5h-7p5--4--------4------4/7-----4-----4--------7--------
D|--------7-----5-----5--------------------------7--------------------------------------------------------------------------------------------
A|--------------------------------------------------------------------------------------------------------------------------------------------
E|--------------------------------------------------------------------------------------------------------------------------------------------

E|--7--5---5/8--10-8--7---
B|--8--7---7/10-12-10-8--
G|-----------------------
D|-----------------------
A|-----------------------
E|-----------------------

Paste any tab in acousterr's tab maker and we'll play it !!!
Now supports capo and sound effects for vibrato/pull-off/hammer/bends/mutes etc !!! Checkout help section
tabs and chords, guitar tabs, music transcription, music technology, deep learning, music information retrieval, transcribe into tabs & chords, chordify, music renditions, songsterr, reverbnation, tabulature, bollywood chords, ultimate guitar, yousician, guitar lessons, acoustic guitar, electric guitar, guitar tuner, 911 tabs