Guitar Tabs for Bad Things

(/) Slide Up  (\) Slide Down  (h) Hammer On  (p) Pull Off  (b) Bend (r) Release (v) Vibrato (x) Muted

Tabs for Song : Bad Things
Capo : 2nd fret


Intro :

            C                 G                 Am                 Am                 F                 C                  
E|-----3--------0-----------------0-----------------0--------------------------------------------------------------
B|-----------1-----------0-----1-----------------1--------------------1-----------------1-----------------1--------
G|--------0-----------------0--------------2-----------------0-----2-----------------2-----------0-----2-----------
D|--------------------------------------------2-----------------2--------------3--------------------2--------------
A|-----3-----------------------------------0-----------------0--------------------3--------------3-----------------
E|-----------------------3-----------------------------------------------------0-----------------------------------
         C
E|--0-------------
B|--------1-----3--
G|-----0-----0-----
D|--0--------------
A|-----------------
E|--------------3--






Paste any tab in acousterr's tab maker and we'll play it !!!
Now supports capo and sound effects for vibrato/pull-off/hammer/bends/mutes etc !!! Checkout help section
tabs and chords, guitar tabs, music transcription, music technology, deep learning, music information retrieval, transcribe into tabs & chords, chordify, music renditions, songsterr, reverbnation, tabulature, bollywood chords, ultimate guitar, yousician, guitar lessons, acoustic guitar, electric guitar, guitar tuner, 911 tabs