Guitar Tabs for Euphoria (???)

(/) Slide Up  (\) Slide Down  (h) Hammer On  (p) Pull Off  (b) Bend (r) Release (v) Vibrato (x) Muted

Tabs for Song : Euphoria (BTS Jungkook)
BPM : 200

Song lyrics here 
E|-----------------------------------------------------------------------------------------0--2-----0--0--(0)---0--0-----
B|--3--2-----3--2-----3--2--3--2-----3--2-----3--2--3--2-----3--2-----3--2-----(2)------3--------3-----------3--------3--
G|--------2--------2--------------2--------2--------------2--------2-----------------------------------------------------
D|-----------------------------------------------------------------------------------------------------------------------
A|-----------------------------------------------------------------------------------------------------------------------
E|-----------------------------------------------------------------------------------------------------------------------

Song lyrics here 
E|-----------0--2-----0--0-----0-----0--0--0-----------5--5--5--3--2--0-----0-----0--0--0-----------------0--2-----0--0--
B|--------3--------3--------------3-----------3--------------------------------3-----------3--0--------3--------3--------
G|-----------------------------------------------------------------------------------------------------------------------
D|-----------------------------------------------------------------------------------------------------------------------
A|-----------------------------------------------------------------------------------------------------------------------
E|-----------------------------------------------------------------------------------------------------------------------

E|--0-----0--0--0--------------0--2-----0--0-----0-----0--0--0-----------5--5--5-----5--7--5-----5--2--2--3--3--2--0-----
B|-----3-----------3--------3--------3--------------3-----------3--------------------------------------------------------
G|-----------------------------------------------------------------------------------------------------------------------
D|-----------------------------------------------------------------------------------------------------------------------
A|-----------------------------------------------------------------------------------------------------------------------
E|-----------------------------------------------------------------------------------------------------------------------

E|--0-----5--5--5-----3--2--0-----0-----0--0--0-----------------2--2--2--2--------2--2--2-----2--0--------------2--2--2--
B|-----------------------------------3-----------3--------3--3--------------3--3--------------------3-----3--3-----------
G|-----------------------------------------------------------------------------------------------------------------------
D|-----------------------------------------------------------------------------------------------------------------------
A|-----------------------------------------------------------------------------------------------------------------------
E|-----------------------------------------------------------------------------------------------------------------------

E|--2--------2--2--2-----2--0--------------2--2--2--2--------2--2--2-----2--0--------------0--2--3--2--3--2--------------
B|-----3--3--------------------3-----3--3--------------3--3--------------------3--------3--------------------2--3-----3--
G|-----------------------------------------------------------------------------------2-----------------------------------
D|-----------------------------------------------------------------------------------------------------------------------
A|-----------------------------------------------------------------------------------------------------------------------
E|-----------------------------------------------------------------------------------------------------------------------

E|-----5--0-----2-----0-----5--0-----2-----2--2--2--------------5--0-----2--5-----5--2--------2--0-----0--------------0--
B|--------------------------------------------------2--3-----3-----------------------------2--------------3--------3-----
G|--------------------------------------------------------------------------------------------------------------2--------
D|-----------------------------------------------------------------------------------------------------------------------
A|-----------------------------------------------------------------------------------------------------------------------
E|-----------------------------------------------------------------------------------------------------------------------

E|--2--3--2--3--2--------5--2--------0-----0--5--2--2--0-----5--2-----2--0-----0-----0--------2--2-----------5--2-----2--
B|-----------------2--3-----------3-----------------------3-----------------3-----------------------2--3-----------------
G|-----------------------------------------------------------------------------------------------------------------------
D|-----------------------------------------------------------------------------------------------------------------------
A|-----------------------------------------------------------------------------------------------------------------------
E|-----------------------------------------------------------------------------------------------------------------------

E|--0--------0-----0--5--2--2--0--------5--2-----2--0-----0-----0--------2--2-----------5--2-----2--0--------0--0--------
B|--------3-----------------------3--------------------3-----------------------2--3-----------------------3--------------
G|--------------------------------------------------------------------------------------------------------------------2--
D|-----------------------------------------------------------------------------------------------------------------------
A|-----------------------------------------------------------------------------------------------------------------------
E|-----------------------------------------------------------------------------------------------------------------------

E|--2--0-----0--------------0--2--3--2--3--2-----------0-----------------0-----0--0--0-----0--0-----------2-----2--0-----
B|--------------3--------3--------------------2--3--------3-----------3--------------------------3--3--3--------------3--
G|--------------------2--------------------------------------------2-----------------------------------------------------
D|-----------------------------------------------------------------------------------------------------------------------
A|-----------------------------------------------------------------------------------------------------------------------
E|-----------------------------------------------------------------------------------------------------------------------

E|-----10-10-9--9--9--7--7--7--5--5--5--7--------0--------------------------------0--0--0-----2-----2--0--------------5--
B|--------------------------------------------7-----7--------8--8--8--8--7--7--7-----------3--------------3-----3--3-----
G|--------------------------------------------------------7--------------------------------------------------------------
D|-----------------------------------------------------------------------------------------------------------------------
A|-----------------------------------------------------------------------------------------------------------------------
E|-----------------------------------------------------------------------------------------------------------------------

E|-----5--3--2--0--0-----0--------2--3--2--3--2--------------5--0-----2--5-----2-----0-----5--0-----2--5-----2--2--2-----
B|--------------------3-----3--------------------2--3-----3-----------------------------------------------------------2--
G|-----------------------------------------------------------------------------------------------------------------------
D|-----------------------------------------------------------------------------------------------------------------------
A|-----------------------------------------------------------------------------------------------------------------------
E|-----------------------------------------------------------------------------------------------------------------------

E|-----------5--0-----2--5-----5--2--------2--0-----0--------------0--2--3--2--3--2--------------------2--5--5--5--2--3--
B|--3--3--------------------------------2--------------3--------3--------------------2--3-----3-----3--------------------
G|-----------------------------------------------------------2-----------------------------------------------------------
D|-----------------------------------------------------------------------------------------------------------------------
A|-----------------------------------------------------------------------------------------------------------------------
E|-----------------------------------------------------------------------------------------------------------------------

E|--3--2--0--0--------2--------2--5--5--5--2--3--3--2--0--0--------------------2--5--5--5--2--3--3--2--0--0-----2--------
B|--------------3-----------3--------------------------------3-----3--------3--------------------------------3--------3--
G|-----------------------------------------------------------------------------------------------------------------------
D|-----------------------------------------------------------------------------------------------------------------------
A|-----------------------------------------------------------------------------------------------------------------------
E|-----------------------------------------------------------------------------------------------------------------------

E|--2--5--5--5--2--3--3--2--0--0--------7--5--------5-----7--5--------5-----7--5--------5-----7--5--------5-----7--5-----
B|--------------------------------3--------------------7-----------------------------------7-----------------7-----------
G|--------------------------------------------7--7--------------7--7-----6--------7--7--------------7--7--------------7--
D|-----------------------------------------------------------------------------------------------------------------------
A|-----------------------------------------------------------------------------------------------------------------------
E|-----------------------------------------------------------------------------------------------------------------------

E|-----5-----7--5--------5-----7--5--------5-----7--5--------5-----------------
B|--------7-----------------------------------7--------------------------------
G|--7--------------7--7-----6--------7--7--------------7--7-----6-----7-----7--
D|-----------------------------------------------------------------------------
A|-----------------------------------------------------------------------------
E|-----------------------------------------------------------------------------



Use manual mode to free up cursor. Paste any tab in acousterr tab maker and we'll play it !!!
tabs and chords, guitar tabs, music transcription, music technology, deep learning, music information retrieval, transcribe into tabs & chords, chordify, music renditions, songsterr, reverbnation, tabulature, bollywood chords, ultimate guitar, yousician, guitar lessons, acoustic guitar, electric guitar, guitar tuner, 911 tabs