Guitar Tabs for Eu Tomo Esta Bebida

EU TOMO ESTA BEBIDA QUE TEM PODER INACREDITÁVEL
E|--------------------------------------------------------------------------------------------------
B|--------------------------------3--3-----3--3-----------------------------------------------------
G|--------------------------3-----------------------3-----------------------------------------------
D|--------5-----5--4--5-----------------------------------5-----5-----------3-----------------------
A|--5-----------------------------------------------------------------5-----------3-----------------
E|--------------------------------------------------------------------------------------------------

ELA MOSTRA TODOS NÓS AQUI DENTRO DESTA VERDADE
E|--------------------------------------------------------------------------------------------------
B|--------------------------------------------------------------------------------------------------
G|--------------------------0-----------------------------------------------------------------------
D|--------------------1-----------------------0-----3-----------------1-----0-----------------------
A|--------3--------3--------------1-----1-----------------0-----3-----------------------0--1--2-----
E|--3--3--------------------------------------------------------------------------3-----------------

ELA MOSTRA TODOS NOS AQUI DENTRO DESTA VERDADE
E|-----------------------------------------------------------------------------------
B|-----------------------------------------------------------------------------------
G|--------------------------0--------------------------------------------------------
D|--------------------1-----------------------0-----3-----------------1-----0--------
A|--------3--------3--------------1-----1-----------------0-----3--------------------
E|--3--3--------------------------------------------------------------------------3--

tabs and chords, guitar tabs, music contests, music covers, songsterr, reverbnation, renditions, tabulature, bollywood chords, ultimate guitar, yousician, guitar lessons, torrins, fender, gibson, acoustic guitar, electric guitar, youtube covers, gootar, guitar tuner, A-Z tabs, 911 tabs