Guitar Tabs for Eu To Morreno

(/) Slide Up  (\) Slide Down  (h) Hammer On  (p) Pull Off  (b) Bend (r) Release (v) Vibrato (x) Muted

Tabs for Song : 

Song lyrics here
E|-----------------------------------------------------------------------------------------------------
B|-----------------------------------------------------------------------------------------------------
G|-----------------------------------------------------------------------------------------------------
D|--0--0--0--0--0--0--0--0---3p0--0---5p0--0---2h3--0--0--0--0--0--0--0--0---3p0--0---5p0--0---2h3-----
A|-----------------------------------------------------------------------------------------------------
E|-----------------------------------------------------------------------------------------------------

Song lyrics here
E|-----------x--x--x--x-----------x--x--x--x-----------x--x--x--x-----------x--x--x--x--
B|-----------x--x--x--x-----------x--x--x--x-----------x--x--x--x-----------x--x--x--x--
G|-----------x--x--x--x-----------x--x--x--x-----------x--x--x--x-----------x--x--x--x--
D|--5--------x--x--x--x--5--------x--x--x--x--5--------x--x--x--x--5--------x--x--x--x--
A|--3--------x--x--x--x--3--------x--x--x--x--3--------x--x--x--x--3--------x--x--x--x--
E|-----------x--x--x--x-----------x--x--x--x-----------x--x--x--x-----------x--x--x--x--

E|----------------------------------------------------------------------------------------------------------------------------------------------------------------
B|-----------------------------------------------------------------------------------------------------------------------------------------------------------------
G|-----------------------------------------------------------------------------------------------------------------------------------------------------------------
D|--3--------------------------------------3--------------------------------------5--------------------------------------5--------------------------------------5--
A|--1--1--1--1--1-----1--1--1-----1--1--1--1--1--1--1--1-----1--1--1-----1--1--1--3--3--3--3--3-----3--3--3-----3--3--3--3--3--3--3--3-----3--3--3-----3--3--3--3--
E|-----------------------------------------------------------------------------------------------------------------------------------------------------------------

E|--------------------------------------------------------------
B|--------------------------------------------------------------
G|--------------------------------------------------------------
D|--------------------------------------------------------------
A|--2-----------3-----------------------------------3-----3--5--
E|--0--0--0--0--1--0--0--0--0--0--0-----0--0--0-----1--0--1--3--

E|--
B|--
G|--
D|--
A|--
E|--

Paste any tab in acousterr's tab maker and we'll play it !!!
Now supports capo and sound effects for vibrato/pull-off/hammer/bends/mutes etc !!! Checkout help section
tabs and chords, guitar tabs, music transcription, music technology, deep learning, music information retrieval, transcribe into tabs & chords, chordify, music renditions, songsterr, reverbnation, tabulature, bollywood chords, ultimate guitar, yousician, guitar lessons, acoustic guitar, electric guitar, guitar tuner, 911 tabs