Guitar Tabs for Eu Pedi

EU PEDI, EU PEDI, EU PEDI, EU PEDI MAMÃE ME DEU
E|--------------------------------------------------------------------------------------------
B|--------------------------------------------------------------------------------------------
G|--------0-----------0-----------0-----------------------0-----0-----2-----0-----------------
D|-----0-----------0-----------0-----------------------0--------------------------2-----------
A|--2-----------2-----------2-----------------------2-----------------------------------------
E|--------------------------------------------------------------------------------------------

PARA ME APRESENTAR AO DIVINO SENHOR DEUS
E|--------------------------------------------------------------------------------------
B|-----------------1-----0-----------0--------------------------------------------------
G|-----2--2--2-----------------2-----------0--------------------------------------------
D|-----------------------------------------------------0--2--0--------------------------
A|-----------------------------------------------------------------3-----0-----2--------
E|-----------------------------------------------------------------------------------3--
tabs and chords, guitar tabs, music contests, music covers, songsterr, reverbnation, renditions, tabulature, bollywood chords, ultimate guitar, yousician, guitar lessons, torrins, fender, gibson, acoustic guitar, electric guitar, youtube covers, gootar, guitar tuner, A-Z tabs, 911 tabs