Guitar Tabs for Eu Cheguei Nesta Casa

EU CHEGUEI NESTA CASA EU ENTREI POR ESTA PORTA
E|--------------------------------------------------------------------------------------------------
B|--------------------------------------------------------------------------------------------------
G|-----------------------------------------0--0-----------2-----------------------------------------
D|--------0--------0--------2-----0-----------------4--------------4--0-----------------------------
A|--2-----------------2-----------------------------------------------------3-----2-----------------
E|--------------------------------------------------------------------------------------3-----------

EU CHEGUEI NESTA CASA EU ENTREI POR ESTA PORTA
E|-----------------------------------------------------------------------------------------------
B|-----------------------------------------------------------------------------------------------
G|-----------------------------------------0--0-----------2--------------------------------------
D|--------0--------0--------2-----0-----------------4--------------4--0--------------------------
A|--2-----------------2-----------------------------------------------------3-----2--------------
E|--------------------------------------------------------------------------------------3--------

EU VENHO DAR OS AGRADECIMENTOS A QUEM ROGOU POR MINHA VOLTA
E|-----------------------------------------------------------------------------------------------
B|-----------------------------------------------------------------------------------------------
G|--0--0-----2-----------------------------------------------------------------------------------
D|--------4-----------4--0-----------------------------2-----0--------0--------------------------
A|-----------------------------3-----2-----2-----2-----------------------0-----2-----------------
E|--------------------------------------------3--------------------------------------3-----------

EU VENHO DAR OS AGRADECIMENTOS A QUEM ROGOU POR MINHA VOLTA
E|-----------------------------------------------------------------------------------------------
B|-----------------------------------------------------------------------------------------------
G|--0--0-----2-----------------------------------------------------------------------------------
D|--------4-----------4--0-----------------------------2-----0--------0--------------------------
A|-----------------------------3-----2-----2-----2-----------------------0-----2-----------------
E|--------------------------------------------3--------------------------------------3-----------



tabs and chords, guitar tabs, music contests, music covers, songsterr, reverbnation, renditions, tabulature, bollywood chords, ultimate guitar, yousician, guitar lessons, torrins, fender, gibson, acoustic guitar, electric guitar, youtube covers, gootar, guitar tuner, A-Z tabs, 911 tabs