Guitar Tabs for Casa Santa

EU ANDEI NA CASA SANTA TROUXE  UITAS COISAS BOAS
E|--------------------------------------------------------------------
B|--------------------------------------------------------------------
G|--------------------2-----------------------------3--2--0-----------
D|--0--3--2--0--3--0-----------3--------0--3--2--0-----------------2--
A|--------------------------------------------------------------------
E|--------------------------------------------------------------------

TUDO VIVI NESTE MUNDO PARECE UMAS COISA À TOA
E|-----------------------------------------------------------
B|-----------------------------------------------------------
G|-----------0--------0-----------------2--0-----------------
D|--------2-----3--2-----------2--------------3--2--0-----0--
A|--0--4-----------------------------------------------4-----
E|-----------------------------------------------------------
tabs and chords, guitar tabs, music contests, music covers, songsterr, reverbnation, renditions, tabulature, bollywood chords, ultimate guitar, yousician, guitar lessons, torrins, fender, gibson, acoustic guitar, electric guitar, youtube covers, gootar, guitar tuner, A-Z tabs, 911 tabs