Ukulele Tabs for Escapism

(/) Slide Up  (\) Slide Down  (h) Hammer On  (p) Pull Off  (b) Bend (r) Release (v) Vibrato (x) Muted

Escapism - Rebecca Sugar

[Intro (4x):]
A|--------2-----------0--------------7--------
E|--------------0-----------0--------5--------
C|--0--------------0-----------5-----5--------
G|-----------0-----------0-----------5--------

[Verse 1:]

I guess I'll have to face,
A|-----2--------------7-----
E|-----0--------------5-----
C|--0--0-----------5--5-----
G|-----0--------------5-----

That in this awful place,
A|-----2-----------7-----
E|-----0-----------5-----
C|--0--0--------5--5-----
G|-----0-----------5-----

I shouldn't show a trace of doubt
A|-----2------------7--------7-----5--
E|-----0-----------5--------4-----4--
C|--0--0--------5--5-----4--4--4--4--
G|-----0-----------5--------4-----4--


[Verse 2:]

But pulled against the grain,
A|--------0-----------3--
E|--------0-----------2--
C|-----0--0--------2--2--
G|--------2-----------2--

I feel a little pain
A|--------0-----------3--
E|--------0-----------2--
C|-----0--0--------2--2--
G|--------2-----------2--

That I would rather do without
A|--------0-----------3--------7--------7--
E|--------0-----------2--------5--------5--
C|-----0--0--------2--2-----5--5-----5--5--
G|--------2-----------2--------5--------5--

[Chorus:]

I'd rather be free-ee-ee, free-ee-ee, free
A|--------7--------5-----------0-----3-----------7--------7--------7--------7-----
E|--------5--------4-----4-----0-----2-----2-----5--------5--------5--------5-----
C|-----5--5--5--5--5--------0--0--0--3--------5--5-----5--5-----5--5-----5--5-----
G|--------5--------4--4--------2-----2--2--------5--------5--------5--------5-----

I'd rather be free-ee-ee, free-ee-ee, free
A|-----7-----------5-----------0-----3-----------7--------7--------7--------7-----
E|-----5-----------4-----4-----0-----2-----2-----5--------5--------5--------5-----
C|--5--5--5-----5--5--------0--0--0--3--------5--5-----5--5-----5--5-----5--5-----
G|-----5-----------4--4--------2-----2--2--------5--------5--------5--------5-----

Free-ee-ee, free-ee-ee, free, from here.
A|-----7--------5-----------0-----3--------------7-----------7--------------5--
E|-----5--------4-----4-----0-----2--------2-----5-----------5--------------4--
C|--5--5--5--5--5--------0--0--0--3-----------5--5-----5-----5--------------5--
G|-----5--------4--4--------2-----2-----2--------5-----------5--------------4--


[Outro:]

(Instrumental)(2x)
A|-----------2-----------0--------------7-----
E|-----------------0-----------0--------5-----
C|-----0--------------0-----------5-----5-----
G|--------------0-----------0-----------5-----

(Instrumental)
A|-----2--------7--------------2--
E|-----0--------5-----------0-----
C|--0--0-----5--5--------0--------
G|-----0--------5-----0-----------
tabs and chords, guitar tabs, music transcription, music technology, deep learning, music information retrieval, transcribe into tabs & chords, chordify, music renditions, songsterr, reverbnation, tabulature, bollywood chords, ultimate guitar, yousician, guitar lessons, acoustic guitar, electric guitar, guitar tuner, 911 tabs