Escapism - Guitar Tabs

(/) Slide Up  (\) Slide Down  (h) Hammer On  (p) Pull Off  (b) Bend (r) Release (v) Vibrato (x) Muted

Tabs for Song : 
BPM : 200

Song lyrics here 

E|-----------------------------------------------------------------------------------------------------------0--
B|--------0--------------------------------------------------------------------------------------------------1--
G|--------0--------------------------------------------------------------------------------------------------2--
D|--------2-----------------------------------------------------5--------------------------------------------3--
A|--3-----3-----------------------------------3-----3---3/5--7------8p7---8p7------3/5--------------------------
E|-----------------------------------------------3-----------------------------------------3-----0-----1--------


Song lyrics here 
E|---------------------------------------------------------------------------------------------------------------
B|-----------------------------------------------------------------0--------------------------------------------
G|--------------------5--7---7/9--5---5/7--2--0--------------------0--------------------------------------------
D|--------------5--7------------------------------0h2--0-----------2--------------------------------------------
A|--3---3/5--7--------------------------------------------3--2--3--3--------------------------------------------
E|--------------------------------------------------------------------------------------------------------------

E|--7-----------5-----------------------------------------------------------------------------------0-----------
B|--------8-----------5------5/8-----5-----3-----1--------------------------------------------------1-----------
G|--------------------------------7-----5-----2-----0---0h-2p0--------------------------------------2-----------
D|------------------------------------------------------------------2h0-----------0-----------------3-----------
A|--------------------------------------------------------------------------3-----------3-----------------------
E|--------------------------------------------------------------------------------------------0--1--------------

E|--------------------0-----------------------------------------------------------------------------------------
B|--------------------0-----------------------------------------------------------------------------------------
G|---5p2--------------1-----------------------------------------------------------------------------------------
D|---------3p0--------0-----------------------------------------------------------------------------------------
A|--------------------2-----------------------------------------------------------------------------------------
E|---------------3p0--------------------------------------------------------------------------------------------

E|---5p0-----------3--------------------------------------------0-----------------------------------------------
B|------------------------------3h-5p3--------------------------0-----------------------------------------------
G|-----------5-----------5--------------------------------------0-----------------------------------------------
D|--------------------------------------------------------------2-----------------------------------------------
A|------------------------------------------5p3-----0-----3-----3-----------------------------------------------
E|--------------------------------------------------------------0-----------------------------------------------

E|--------------------------------0-----------------------------------0-----
B|-----------0--------------------1-----------------0-----------------1-----
G|-----------0--------------------2-----------------0-----------------2-----
D|-----------2-----------3--------------------------2--------3--------------
A|--3--------------------------------------3--------------------------------
E|--------------------------------------------------------------------------

Use manual mode to free up cursor. Paste any tab in acousterr tab maker and we'll play it !!!
tabs and chords, guitar tabs, music transcription, music technology, deep learning, music information retrieval, transcribe into tabs & chords, chordify, music renditions, songsterr, reverbnation, tabulature, bollywood chords, ultimate guitar, yousician, guitar lessons, acoustic guitar, electric guitar, guitar tuner, 911 tabs