Ukulele Tabs for Here Comes A Thought

(/) Slide Up  (\) Slide Down  (h) Hammer On  (p) Pull Off  (b) Bend (r) Release (v) Vibrato (x) Muted

Here Comes a Thought: Rebecca Sugar

[Intro (2x):]

Take a moment to think of just
A|--7-----------7--
E|--5-----------5--
C|--5-----------5--
G|--5-----------5--

Flexibility, love, trust
A|--7-----------5--
E|--4-----------4--
C|--4-----------4--
G|--4-----------4--


[Verse 1:]

Here comes a thought
A|-----5---------3p2--0-----------0--------------
E|-----0-----0--------0-----0-----------0--------
C|--0-----------------0--------0-----------0-----
G|--------0-----------0--0-----------0--------0--

That might alarm you
A|--5---3p2--0--2--------
E|--0-----------------0--
C|--0--------------------
G|--0--------------0-----

What someone said and how it harmed you
A|-----7-----------7-----------7-----------7----------
E|-----5-----5-----5-----5-----4-----4-----4-----4--
C|--5--5--------5--5--------4--4--------4--4--------
G|-----5--5--------5--5--------4--4--------4--4-----

Something you did
A|--5---3p2--0--0-----------
E|--0-----------0--0--------
C|--0-----------0-----0-----
G|--------------0--------0--

That failed to be charming
A|--5--3--2--0--2--------
E|--0-----------------0--
C|--0--------------------
G|-----------------0-----

Things that you said are suddenly swarming
A|-----7-----------7-----------7-----------7--------
E|-----5-----5-----5-----5-----4-----4-----4-----4--
C|--5--5--------5--5--------4--4--------4--4--------
G|-----5--5--------5--5--------4--4--------4--4-----


[Pre-Chorus:]

And, oh, you're losing sight, you're losing touch
A|-----3-----------3-----------2-----------2-----------2--------
E|-----1-----1-----1-----1-----1-----1-----1-----1-----0-----0--
C|--2--2--------2--2--------2--2--------2--2--------0--0--------
G|-----2--2--------2--2--------0--0--------0--0--------0--0-----

All these little things seem to matter so much, that they confuse you
A|-----2-----------3--------------3--------3--------2-----------2--
E|-----0-----0-----2--------------1--------1-----1--0-----------0--
C|--0--0-----------3--------------2-----------------0-----------2--
G|-----0--0--------2--------------2-----------2-----0-----------1--

That I might lose you
A|-----3--------------3-----------2--
E|-----1-----------1--1-----------1--
C|--------------------2-----------2--
G|-----------2--------0-----------0--


[Chorus:]

Take a moment, remind yourself
A|-----7-----------7--
E|-----5-----------5--
C|-----5-----------5--
G|-----5-----------5--

To take a moment and find yourself
A|-----7-----------5--
E|-----4-----------4--
C|-----4-----------4--
G|-----4-----------4--

Take a moment and ask yourself
A|-----7-----------7--
E|-----5-----------5--
C|-----5-----------5--
G|-----5-----------5--

If this is how we fall fall apart
A|-----5-----------2--
E|-----4-----------1--
C|-----5-----------2--
G|-----4-----------1--

But it's not, but it's not, but it's not, but it's not, but it's not
A|-----2-----------2-----------7-----------7--------
E|-----0-----0-----0-----0-----5-----5-----5-----5--
C|--0--0--------0--0--------5--5--------5--5--------
G|-----0--0--------0--0--------5--5--------5--5-----

It's okay, it's okay, it's okay, it's okay, it's okay
A|-----2-----------2-----------7-----------7--------
E|-----0-----0-----0-----0-----5-----5-----5-----5--
C|--0--0--------0--0--------5--5--------5--5--------
G|-----0--0--------0--0--------5--5--------5--5-----

You've got nothing, got nothing, got nothing, got nothing to fear
A|-----2-----------2-----------7-----------7--------
E|-----0-----0-----0-----0-----5-----5-----5-----5--
C|--0--0--------0--0--------5--5--------5--5--------
G|-----0--0--------0--0--------5--5--------5--5-----

I'm here, I'm here, I'm here
A|--5--------2--------2--2-----------
E|--4--------1--------0--0--0--------
C|--5--------2--------0--0-----0-----
G|--4--------1--------0--0--------0--


[Verse 2:]

Here comes a thought
A|-----5---------3p2--0-----------0--------------
E|-----0-----0--------0-----0-----------0--------
C|--0-----------------0--------0-----------0-----
G|--------0-----------0--0-----------0--------0--

That might alarm me
A|--5---3p2--0--2--------
E|--0-----------------0--
C|--0--------------------
G|--0--------------0-----

What someone said and how it harmed me
A|-----7-----------7-----------7-----------7--------
E|-----5-----5-----5-----5-----4-----4-----4-----4--
C|--5--5--------5--5--------4--4--------4--4--------
G|-----5--5--------5--5--------4--4--------4--4-----

Something I did
A|--5---3p2--0--0-----------
E|--0-----------0--0--------
C|--0-----------0-----0-----
G|--------------0--------0--

That failed to be charming
A|--5--3--2--0--2--------
E|--0-----------------0--
C|--0--------------------
G|-----------------0-----

Things that I said are suddenly swarming
A|-----7-----------7-----------7-----------7--------
E|-----5-----5-----5-----5-----4-----4-----4-----4--
C|--5--5--------5--5--------4--4--------4--4--------
G|-----5--5--------5--5--------4--4--------4--4-----


[Pre-Chorus:]

And, oh, I'm losing sight, I'm losing touch
A|-----3-----------3-----------2-----------2-----------2--------
E|-----1-----1-----1-----1-----1-----1-----1-----1-----0-----0--
C|--2--2--------2--2--------2--2--------2--2--------2--0--------
G|-----2--2--------2--2--------0--0--------0--0--------0--0-----

All these little things seem to matter so much, that they confuse me
A|-----2-----------3--------------------3--------3--------2-----------2--
E|-----0-----0-----2--------------------1--------1-----1--0-----------0--
C|--0--0-----------3--------------------2-----------------0-----------2--
G|-----0--0--------2--------------------2-----------2-----0-----------1--

That I might lose me
A|--------3--------------3-----------2--
E|--------1-----------1--1-----------1--
C|-----------------------2-----------2--
G|--------------2--------0-----------0--


[Chorus:]

Take a moment, remind yourself
A|-----7-----------7--
E|-----5-----------5--
C|-----5-----------5--
G|-----5-----------5--

To take a moment and find yourself
A|-----7-----------5--
E|-----4-----------4--
C|-----4-----------4--
G|-----4-----------4--

Take a moment and ask yourself
A|-----7-----------7--
E|-----5-----------5--
C|-----5-----------5--
G|-----5-----------5--

If this is how we fall fall apart
A|-----5-----------2--
E|-----4-----------1--
C|-----5-----------2--
G|-----4-----------1--

But it's not, but it's not, but it's not, but it's not, but it's not
A|-----2-----------2-----------7-----------7--------
E|-----0-----0-----0-----0-----5-----5-----5-----5--
C|--0--0--------0--0--------5--5--------5--5--------
G|-----0--0--------0--0--------5--5--------5--5-----

It's okay, it's okay, it's okay, it's okay, it's okay
A|-----2-----------2-----------7-----------7--------
E|-----0-----0-----0-----0-----5-----5-----5-----5--
C|--0--0--------0--0--------5--5--------5--5--------
G|-----0--0--------0--0--------5--5--------5--5-----

You've got nothing, got nothing, got nothing, got nothing to fear
A|-----2-----------2-----------7-----------7--------
E|-----0-----0-----0-----0-----5-----5-----5-----5--
C|--0--0--------0--0--------5--5--------5--5--------
G|-----0--0--------0--0--------5--5--------5--5-----

I'm here, I'm here, I'm here
A|--5--------2--------2--2--------
E|--4--------1--------0--0--0-----
C|--5--------2--------0--0-----0--
G|--4--------1--------0--0--------


[Bridge:]

And it was just a thought, just a thought, just a thought, just a thought, just a thought
A|-----2-----------2-----------7-----------7--------
E|-----0-----0-----0-----0-----5-----5-----5-----5--
C|--0--0--------0--0--------5--5--------5--5--------
G|-----0--0--------0--0--------5--5--------5--5-----

It's okay, it's okay, it's okay, it's okay, it's okay
A|-----2-----------2-----------7-----------7--------
E|-----0-----0-----0-----0-----5-----5-----5-----5--
C|--0--0--------0--0--------5--5--------5--5--------
G|-----0--0--------0--0--------5--5--------5--5-----

We can watch, we can watch, we can watch, we can watch them go by
A|-----2-----------2-----------7-----------7--------
E|-----0-----0-----0-----0-----5-----5-----5-----5--
C|--0--0--------0--0--------5--5--------5--5--------
G|-----0--0--------0--0--------5--5--------5--5-----

From here, from here, from here
A|--5--------2--------2--2-----------
E|--4--------1--------0--0--0--------
C|--5--------2--------0--0-----0-----
G|--4--------1--------0--0--------0--


[Outro (2x):]

Take a moment to think of just
A|--7-----------7--
E|--5-----------5--
C|--5-----------5--
G|--5-----------5--

Flexibility, love, trust
A|--7-----------5--
E|--4-----------4--
C|--4-----------4--
G|--4-----------4--


[Instrumental:]

A|--------5--------3-----2-----0--
E|--------0-----0--------------0--
C|-----0-----------------------0--
G|-----------0-----------------0--
tabs and chords, guitar tabs, music transcription, music technology, deep learning, music information retrieval, transcribe into tabs & chords, chordify, music renditions, songsterr, reverbnation, tabulature, bollywood chords, ultimate guitar, yousician, guitar lessons, acoustic guitar, electric guitar, guitar tuner, 911 tabs