Guitar Tabs for Escalas

(/) Slide Up  (\) Slide Down  (h) Hammer On  (p) Pull Off  (b) Bend (r) Release (v) Vibrato (x) Muted

Tabs for Song : 
BPM : 200

Song lyrics here 
E|--------------------------------5--8-----------------------------------------------7--8--10----------------------5--8--
B|--------------------------5--8--------------------------------------------6--8--10----------------------------5--------
G|--------------------5--7-----------------------------------------5--7--9-----------------------------------5-----------
D|--------------5--7--------------------------------------5--7--9-----------------------------------------7--------------
A|--------5--7-----------------------------------5--7--8--------------------------------------------3--7-----------------
E|--5--8--------------------------------5--7--8--------------------------------------------------------------------------

E|--------------------------------8--10----------------------------------------------10-12-13----------------------8--12-
B|--------------------------8--10-------------------------------------------10-12-13----------------------------10-------
G|--------------------7--9-----------------------------------------9--10-12----------------------------------9-----------
D|--------------7--10-------------------------------------9--10-12----------------------------------------10-------------
A|--------7--10----------------------------------8--10-12-------------------------------------------7--12----------------
E|--8--10-------------------------------8--10-12-------------------------------------------------------------------------

E|--------------------------------10-12----------------------------------------------12-13-15----------------------12-17-------------------------12-15----------------------12-15-
B|--------------------------10-13-------------------------------------------12-13-15----------------------------13----------------------------13-------------------------13-------
G|--------------------9--12----------------------------------------10-12-14----------------------------------14-------------------------12-14-------------------------12----------
D|--------------10-12-------------------------------------10-12-14----------------------------------------14-------------------------14----------------------------14-------------
A|--------10-12----------------------------------10-12-14-------------------------------------------12-15----------------------12-15-------------------------10-15----------------
E|--10-12-------------------------------10-12-13----------------------------------------------------------------------------------------------------------------------------------

E|--------------------------------12-15----------------------------------------------13-15-17-------
B|--------------------------13-15-------------------------------------------13-15-17----------------
G|--------------------12-14----------------------------------------12-14-16-------------------------
D|--------------12-14-------------------------------------12-14-15----------------------------------
A|--------12-15----------------------------------12-14-15-------------------------------------------
E|--12-15-------------------------------12-13-15----------------------------------------------------

E|--------------------------------15-17----------------------------------------------17-19-20-
B|--------------------------15-17-------------------------------------------17-18-20----------
G|--------------------14-17----------------------------------------16-17-19-------------------
D|--------------14-17-------------------------------------15-17-19----------------------------
A|--------15-17----------------------------------15-17-19-------------------------------------
E|--15-17-------------------------------15-17-19----------------------------------------------

E|-----------------------------------------------1--3--5--
B|--------------------------------------1--3--5-----------
G|-----------------------------0--2--4--------------------
D|--------------------0--2--3-----------------------------
A|-----------0--2--3--------------------------------------
E|--0--1--3-----------------------------------------------

Song lyrics here 
E|-----------------------------------------------3--5--7--
B|--------------------------------------3--5--6-----------
G|-----------------------------2--4--5--------------------
D|--------------------2--3--5-----------------------------
A|-----------2--3--5--------------------------------------
E|--1--3--5-----------------------------------------------

E|-----------------------------------------------5--7--8--
B|--------------------------------------5--6--8-----------
G|-----------------------------4--5--7--------------------
D|--------------------3--5--7-----------------------------
A|-----------3--5--7--------------------------------------
E|--3--5--7-----------------------------------------------

E|-----------------------------------------------7--8--10-
B|--------------------------------------6--8--10----------
G|-----------------------------5--7--9--------------------
D|--------------------5--7--9-----------------------------
A|-----------5--7--8--------------------------------------
E|--5--7--8-----------------------------------------------

E|-----------------------------------------------8--10-12-
B|--------------------------------------8--10-12----------
G|-----------------------------7--9--10-------------------
D|--------------------7--9--10----------------------------
A|-----------7--8--10-------------------------------------
E|--7--8--10----------------------------------------------

E|-----------------------------------------------10-12-13-
B|--------------------------------------10-12-13----------
G|-----------------------------9--10-12-------------------
D|--------------------9--10-12----------------------------
A|-----------8--10-12-------------------------------------
E|--8--10-12----------------------------------------------

E|-----------------------------------------------12-13-15-
B|--------------------------------------12-13-15----------
G|-----------------------------10-12-14-------------------
D|--------------------10-12-14----------------------------
A|-----------10-12-14-------------------------------------
E|--10-12-13----------------------------------------------

E|--
B|--
G|--
D|--
A|--
E|--

Use manual mode to free up cursor. Paste any tab in acousterr tab maker and we'll play it !!!
tabs and chords, guitar tabs, music transcription, music technology, deep learning, music information retrieval, transcribe into tabs & chords, chordify, music renditions, songsterr, reverbnation, tabulature, bollywood chords, ultimate guitar, yousician, guitar lessons, acoustic guitar, electric guitar, guitar tuner, 911 tabs