Guitar Tabs for Emptiness Gajendra Verma Guitar Intro

(/) Slide Up  (\) Slide Down  (h) Hammer On  (p) Pull Off  (b) Bend (r) Release (v) Vibrato

Tabs for Song : Emptiness - Gajendra Verma GUitar Intro

Part 1
E|--------------------------------------------------
B|--------1-----------1-----------1-----------1-----
G|-----2-----2-----2-----2-----2-----2-----2-----2--
D|--3-----------3-----------2-----------2-----------
A|--------------------------------------------------
E|--------------------------------------------------

Part 2
E|--------------------------------------------------
B|--------------------------------------------------
G|--------3-----------3-----------0-----0--2--0-----
D|-----3-----3-----3-----3-----2-----2-----------3--
A|--5-----------5-----------3-----------------------
E|--------------------------------------------------

Now supports capo and sound effects for vibrato/pull-off/hammer/bends etc !!! Checkout help section
tabs and chords, guitar tabs, music transcription, music technology, deep learning, music information retrieval, transcribe into tabs & chords, chordify, music renditions, songsterr, reverbnation, tabulature, bollywood chords, ultimate guitar, yousician, guitar lessons, acoustic guitar, electric guitar, guitar tuner, 911 tabs