Guitar Tabs for Emptiness

 
Tabs for Song : tune mere jana(Emptiness)

E|--------------------------
B|--------1-----------1-----
G|-----2-----2-----2-----2--
D|--3-----------3-----------
A|--------------------------
E|--------------------------

E|--------------------------
B|--------1-----------1-----
G|-----2-----2-----2-----2--
D|--3-----------3-----------
A|--------------------------
E|--------------------------

E|--------------------------
B|--------------------------
G|--------3-----------3-----
D|--0--3-----3--0--3-----3--
A|--------------------------
E|--------------------------

E|--------------------------------
B|--------------------------------
G|--------0-----0--2--0-----------
D|-----2-----2-----------2--3-----
A|--3-----------------------------
E|--------------------------------

oh love of mine,with a song an a a wine
E|--------------------------------------
B|-----1-----1--------------1--3--1-----
G|--2-----2--------2--2--2--------------
D|--------------------------------------
A|--------------------------------------
E|--------------------------------------

you'r harsh and divine ,like truths and a lie
E|--------------------------------------------
B|--------1-----------------------------------
G|-----------3--2-----------0--2--0--0--0-----
D|--3--3-----------3-----3--------------------
A|--------------------------------------------
E|--------------------------------------------

but the tell ends not here, i have nothing to fear
E|--------------------------------------------
B|-----1-----1-----1--------------1--3--1-----
G|--2-----2-----2--------2--2--2--------------
D|--------------------------------------------
A|--------------------------------------------
E|--------------------------------------------

for my live is yell of giving and hold on
E|--------------------------------------
B|--------1-----------------------------
G|-----------3--2--------0--2--0--0--0--
D|--3--3-----------3--3-----------------
A|--------------------------------------
E|--------------------------------------

and the brigth emptiness 
E|--0-----0--1--0-----------
B|-----------------1--1-----
G|--------------------------
D|--------------------------
A|--------------------------
E|--------------------------

in a room full of it
E|--------1-----0-----------
B|-----1-----------3--1-----
G|--2-----------------------
D|--------------------------
A|--------------------------
E|--------------------------

is a cruel mistress whoa oh
E|--------3-----0--1-----3--5--3-----
B|--1--1--------------3--------------
G|-----------------------------------
D|-----------------------------------
A|-----------------------------------
E|-----------------------------------

i feel this unrest
E|--0-----0--1--0-----------
B|-----------------1--1-----
G|--------------------------
D|--------------------------
A|--------------------------
E|--------------------------

that nest all hollowness
E|-----------1--0--------------
B|--------1--------3--1--1-----
G|--2--------------------------
D|-----------------------------
A|-----------------------------
E|-----------------------------

for i have nowhere to go and i'm cold
E|--------3--1--0--------3--5--3-----
B|--1--1-----------3-----------------
G|-----------------------------------
D|-----------------------------------
A|-----------------------------------
E|-----------------------------------

and i feel so lonely yeah..
E|-----------3--3--5-----------
B|--1--1--1-----------6--3-----
G|-----------------------------
D|-----------------------------
A|-----------------------------
E|-----------------------------

there's a better place than this emptiness
E|--------------------------------0--------
B|--3--1--3--1--3--1--3-----1--3-----1-----
G|-----------------------------------------
D|-----------------------------------------
A|-----------------------------------------
E|-----------------------------------------

and i'm so lonely yeah
E|-----------3--3--5-----------
B|--1--1--1-----------6--3-----
G|-----------------------------
D|-----------------------------
A|-----------------------------
E|-----------------------------

there's a better place than this emptiness
E|--------------------------------0--------
B|--3--1--3--1--3--1--3-----1--3-----1-----
G|-----------------------------------------
D|-----------------------------------------
A|-----------------------------------------
E|-----------------------------------------

yeah -e - yeah 
E|--------------------
B|--1-----------------
G|-----3--2--3--2-----
D|--------------------
A|--------------------
E|--------------------

tune mere jaana 
E|-----------------------1-----
B|--------1--1--1--3-----------
G|--2--2-----------------------
D|-----------------------------
A|-----------------------------
E|-----------------------------

kabhi nhi jaana
E|--0--1--0--------1--0-----
B|-----------3--1-----------
G|--------------------------
D|--------------------------
A|--------------------------
E|--------------------------

ishq mera dard mera..haaye
E|-----------------------1--0--------------------
B|--3--3--1--3-----3-----------3--1--------------
G|-----------------------------------------------
D|-----------------------------------3-----2-----
A|-----------------------------------------------
E|-----------------------------------------------

aashiq tera 
E|--1-----1--3--5--5-----3--5-----
B|--------------------------------
G|--------------------------------
D|--------------------------------
A|--------------------------------
E|--------------------------------

bheed mein khoya rahta hai
E|--1--1--1--1--5--3--3-----1--3-----
B|-----------------------------------
G|-----------------------------------
D|-----------------------------------
A|-----------------------------------
E|-----------------------------------

jaane jahaan
E|--1--5--3--1-----5-----3--5-----
B|--------------------------------
G|--------------------------------
D|--------------------------------
A|--------------------------------
E|--------------------------------

pucho to itna kahta hai
E|--1--1--1--1--5--3--3-----1--3-----
B|-----------------------------------
G|-----------------------------------
D|-----------------------------------
A|-----------------------------------
E|-----------------------------------

that i feel so lonely yeah..
E|-----------3--3--5-----------
B|--1--1--1-----------6--3-----
G|-----------------------------
D|-----------------------------
A|-----------------------------
E|-----------------------------

there's a better place than this emptiness
E|--------------------------------0--------
B|--3--1--3--1--3--1--3-----1--3-----1-----
G|-----------------------------------------
D|-----------------------------------------
A|-----------------------------------------
E|-----------------------------------------
tabs and chords, guitar tabs, music contests, music covers, songsterr, reverbnation, renditions, tabulature, bollywood chords, ultimate guitar, yousician, guitar lessons, torrins, fender, gibson, acoustic guitar, electric guitar, youtube covers, gootar, guitar tuner, A-Z tabs, 911 tabs