Ukulele Tabs for Emptiness Gajendra Verma Ukulele Intro

(/) Slide Up  (\) Slide Down  (h) Hammer On  (p) Pull Off  (b) Bend (r) Release (v) Vibrato

Tabs for Song : Emptiness - Gajendra Verma Ukulele Intro

Part 1
A|-----0--3--0-----0--3--0-----0--3--0-----0--3--0--
E|--1-----------1-----------0-----------0-----------
C|--------------------------------------------------
G|--------------------------------------------------

Part 2
A|--------1-----------1--------------------0--------
E|-----1-----1-----1-----1-----0--3--0--3-----3--1--
C|--2-----------2-----------0-----------------------
G|--------------------------------------------------

Now supports capo and sound effects for vibrato/pull-off/hammer/bends etc !!! Checkout help section
tabs and chords, guitar tabs, music contests, music covers, songsterr, reverbnation, renditions, tabulature, bollywood chords, ultimate guitar, yousician, guitar lessons, torrins, fender, gibson, acoustic guitar, electric guitar, youtube covers, gootar, guitar tuner, A-Z tabs, 911 tabs