Guitar Tabs for Elvis Presley - Suspicious Minds

Elvis Presley - Suspicious Minds

Intro

    (G)              (C9)
E|--------------------------------------
B|-----------0--------------1-----------
G|-----------0--------------0--0--------  2x
D|--------0------------0h2--------2-----
A|--------------------------------------
E|--3--------------3-----------------3--

1st Verse

(G)
We're caught in a trap

(C)
 I can't walk out
 
(D)           (C)               (G)
 Because I love you too much baby
 
(G)
 Why can't you see
 
(C)
 What you're doing to me
 
(D)                (C)            (D)    (C)  (Bm)  (D7)
  When you don't believe a word I say?

Chorus

 (C)        (G)      (Bm)
We can't go on together

                (C)    (D)
With suspicious minds

(Em)          (Bm)
And we can't build our dreams

(C)               (D)
 On suspicious minds

2nd Verse

 (G)
So, if an old friend I know

  (C)
Stops by to say hello

 (D)                    (C)         (G)
Would I still see suspicion in your eyes?

 (G)
Here we go again

(C)
Asking where I've been

 (D)                       (C)             (D)    (C)  (Bm)  (D7)
You can't see these tears are real, I'm crying

Chorus

 (C)        (G)       (Bm)
We can't go on together

                 (C)    (D)
With suspicious minds

(Em)            (Bm)
And we can't build our dreams

(C)               (Bm)
 On suspicious minds
 
Tension

(Em)          (Bm)        (C)
Oh let our love survive

            (D)
Or dry the tears from your eyes

(Em)                  (Bm)
 Let's don't let a good thing die
 
(C)            (D)
  When honey, you know
  
              (G)
 I've never lied to you
 
(C)     (G)     (D)
 Mmm yeah, yeah

3rd Verse

***Repeat the 3rd Verse until the end. Fade Out.***

(G)
We're caught in a trap

(C)
 I can't walk out
 
(D)           (C)               (G)
 Because I love you too much baby
 
(G)
 Why can't you see
 
(C)
 What you're doing to me
 
(D)                (C)            (D)  
  When you don't believe a word I say?
  
----------------------------------------------------------------------------------------
Chords

    C     C9    D     D7
E|--0-----3-----2-----2--
B|--1-----3-----3-----1--
G|--0-----0-----2-----2--
D|--2-----2-----0-----0--
A|--3-----3--------------
E|-----------------------

    Em    G     Bm
E|--0-----3-----2--
B|--0-----3-----3--
G|--0-----0-----4--
D|--2-----0-----4--
A|--2-----2-----2--
E|--0-----3--------
tabs and chords, guitar tabs, music transcription, music technology, deep learning, music information retrieval, transcribe into tabs & chords, chordify, music renditions, songsterr, reverbnation, tabulature, bollywood chords, ultimate guitar, yousician, guitar lessons, acoustic guitar, electric guitar, guitar tuner, 911 tabs