Bass Tabs for Elvis Presley - Suspicious Minds

Elvis Presley - Suspicious Minds

Intro
G|-----------------------------------
D|--5-----5--5-----5--5-----5--5-----
A|--------------------------------5--
E|-----------------------------------

1st Verse
G|--------------------------------------------------------------------
D|--5-----5--5-----5--5-----5--5--------------------------------------
A|-----------------------------------5--3-----3--3-----3--3-----3--3--
E|--------------------------------------------------------------------

G|--------------------------------------------------------------------------------------
D|-----------------------------------------5-----5--5--------5-----5--5-----------------
A|--3--5-----5--5-----5--3-----3--3-----3-----------------5------------------3h5---3h5--
E|--------------------------------------------------------------------------------------


G|--------------------------------------------------------------------------------------
D|--5--5--------5--5--------5-----5-----------------------------------------------------
A|-----------5-----------5-----5-----5-----3--3-----3--3--------3-----3-----3-----3--4--
E|-----------------------------------------------3-----------3-----3-----3-----3--------

G|--------------------------------------------------------------------------------------
D|--------------------------------------------------------------------------------------
A|--5--5-----5-----5--------3--3--------3-----3-----5--5--5--5--3--3--3--3--2--2--2--2--
E|--------------5-----5--------------3-----3-----3--------------------------------------

G|-----------------
D|-----------------
A|---3/5------3/5--
E|-----------------

Chorus
G|--------------------------------------------------------------------------------------------------
D|--------------------------------5-----5-----------------------------------------------------------
A|--3-----3-----3--2--0--------5-----5-----5--------2-----2-----2------2/5--3-----3-----5-----5-----
E|-----3-----3-----------2--3-----------------5--6-----2-----2-----2-----------3-----3-----5-----5--

G|-----------------------------------------------------------------------------------------------
D|-----------------------------------------------------------------------------------------------
A|--7-----7-----7-----7-----2-----2-----2------2/5--3-----3-----3-----3--4--5-----5-----5-----5--
E|-----7-----7-----7-----7-----2-----2-----2-----------3-----3-----3-----------5-----5-----5-----

2nd Chorus
G|--------------------------------------------------------------------------------------------------
D|--------------------------------5-----5-----------------------------------------------------------
A|--3-----3-----3--2--0--------5-----5-----5--------2-----2-----2------2/5--3-----3-----5-----5-----
E|-----3-----3-----------2--3-----------------5--6-----2-----2-----2-----------3-----3-----5-----5--

G|-----------------------------------------------------------------------------------------------
D|-----------------------------------------------------------------------------------------------
A|--7-----7-----7-----7-----2-----2-----2------2/5--3-----3-----3-----3--4--2--2--2--2--2--2--2--
E|-----7-----7-----7-----7-----2-----2-----2-----------3-----3-----3-----------------------------

Bridge
G|--------------------------------------------------------------------------------
D|--2-----------------------------------------------------------------------------
A|--------0--2-----2--3-----3--5-----5--6--7--------------------------5--7--9--10-
E|-----------------------------------------------5--7-----7--8-----8--------------

G|--------------------------------------------------
D|--------------------------------------------------
A|--------------7--9--10----------------------------
E|--5--7--8--------------------10----10----10----10-
tabs and chords, guitar tabs, music transcription, music technology, deep learning, music information retrieval, transcribe into tabs & chords, chordify, music renditions, songsterr, reverbnation, tabulature, bollywood chords, ultimate guitar, yousician, guitar lessons, acoustic guitar, electric guitar, guitar tuner, 911 tabs