Bass Tabs for Elvis Presley - Hound Dog

Elvis Presley - Hound Dog

Blues in C - Slow Change

G|--------------------------------------
D|-----2--5-----2--5-----2--5-----2--5--
A|--3--------3--------3--------3--------
E|--------------------------------------

G|--------------------------------------------------------------------
D|-----------------------2--5-----2--5-----------------------2--5-----
A|-----0--3-----0--3--3--------3-----------2--5-----0--3--3--------3--
E|--1--------1--------------------------3--------1--------------------
tabs and chords, guitar tabs, music transcription, music technology, deep learning, music information retrieval, transcribe into tabs & chords, chordify, music renditions, songsterr, reverbnation, tabulature, bollywood chords, ultimate guitar, yousician, guitar lessons, acoustic guitar, electric guitar, guitar tuner, 911 tabs