Elizabeth [solo] - Guitar Tabs

(/) Slide Up  (\) Slide Down  (h) Hammer On  (p) Pull Off  (b) Bend (r) Release (v) Vibrato (x) Muted

Tabs for Song : 
BPM : 200

Song lyrics here 
D|--21-21-21-21-21-20-20-20-20-20-16-16-16-16-16-------14-------14-------14-------14-------------------------------------------------------------------------------------------------------------------------------------------------------------------8--12-12-12-12-12-
A|-----------------------------------------------19-------17-14----14-13----13-12----12-10-9--7--5--7--3--5--2--7--9--6--8-----12----------------------------------------------------------------------12-12-12-12-12-11-11-11-11-11-10-10-10-10-10-9--------------------
F|--------------------------------------------------16----------------------------------------------------------------------4-----11-9--4--5--4-----------9-----9--9--9--9--9--11-11-11-11-12-12-12-12-------------------------------------------------------------------
C|-----------------------------------------------------------------------------------------------------------------------------------------------------8-----6-----------------------------------------------------------------------------------------------------------
G|-----------------------------------------------------------------------------------------------------------------------------------------------2--1--------------------------------------------------------------------------------------------------------------------
D|-----------------------------------------------------------------------------------------------------------------------------------------------------------------------------------------------------------------------------------------------------------------------

D|--------------------   16----
A|--17b-17b-17b-14-17-14----14-
F|--------------------------
C|--------------------------
G|--------------------------
D|--------------------------


Song lyrics here 
D|--
A|--
F|--
C|--
G|--
D|--

Use manual mode to free up cursor. Paste any tab in acousterr tab maker and we'll play it !!!

About In Memory of Elizabeth Reed : The Allman Brothers Band first appeared on their second studio album, Idlewild South (1970), released on Capricorn Records . The song was written by guitarist Dickey Betts, among his first songwriting credits . The original studio recording of "In Memory of Elizabeth Reed" is the fourth track on the group's 1970 album Idlewild South . Composed by Dickey Betts, it is the first instrumental written by a band member . The original Rolling Stone review said the song "just goes and goes for a stupendous, and unnoticed "In Memory of Elizabeth Reed" was inspired by a woman Betts was involved with Boz Scaggs . The song is named after a headstone Betts saw at the Rose Hill Cemetery in Macon, Georgia . It was released in 1970. It was released as part of album Idlewild South (Studio) At Fillmore East (Live). The genre is jazz fusion instrumental rock jam rock. The track was release in 1970. In Memory of Elizabeth Reed has a significant contribution from artist(s) Dickey Betts. It is related to the album(s) - Idlewild South. The track has an affiliation to the band(s) - the Allman Brothers Band.

About Idlewild South : The Allman Brothers Band toured the United States extensively to promote the album . The album, produced by Tom Dowd, was released on September 23, 1970, in the U.S. Idlewild South was recorded gradually over a period of five months in various cities . The material presented on IdlewildSouth was written during this period and tested out on the road . The album was released in September 1970 but again failed to achieve significant success . Sales began to grow due to over 300 shows the band put on in 1970 . Following the band's increased fame in the early 1970s, this album and its predecessor were repackaged into the compilation album Beginnings . It had a contribution from notable artists like Tom Dowd. It had an affiliation to bands - the Allman Brothers Band. Its music is influenced by genres - southern rock , blues , blues rock.

tabs and chords, guitar tabs, music transcription, music technology, deep learning, music information retrieval, transcribe into tabs & chords, chordify, music renditions, songsterr, reverbnation, tabulature, bollywood chords, ultimate guitar, yousician, guitar lessons, acoustic guitar, electric guitar, guitar tuner, 911 tabs