Bass Tabs for Bass Lines Page

(/) Slide Up  (\) Slide Down  (h) Hammer On  (p) Pull Off  (b) Bend (r) Release (v) Vibrato (x) Muted

Tabs for Song :  ELECTRIC FEEL


    Electric Feel
G|--5--5-----5--------------3-----5--------
D|--------------5--6-----------------5--6--
A|-----------------------1-----3-----------
E|-----------------------------------------
    Brianstorm
G|-----------------------------------------------------------------------
D|-----------------------------------------------------------------------
A|-----------------------------------------------------------------------
E|--1--1-----1--1--1-----1-----------------------------------------------

G|-----------------------------------------------------------------------
D|--3-----------------------5--------------------------------------------
A|-----4--3-----4--4--6--7-----------------------------------------------
E|-----------------------------------------------------------------------

G|-----------------------------------------------------------------------
D|-----------------------------------------------------------------------
A|--3--------------3--3--------4-----------3--------3--3-----------------
E|--------4--1-----------4--1-----------------4--1--------4--1--4-----0--



tabs and chords, guitar tabs, music transcription, music technology, deep learning, music information retrieval, transcribe into tabs & chords, chordify, music renditions, songsterr, reverbnation, tabulature, bollywood chords, ultimate guitar, yousician, guitar lessons, acoustic guitar, electric guitar, guitar tuner, 911 tabs