Bass Lines Page - Bass Tabs

(/) Slide Up  (\) Slide Down  (h) Hammer On  (p) Pull Off  (b) Bend (r) Release (v) Vibrato (x) Muted

Tabs for Song :  ELECTRIC FEEL


    Electric Feel
G|--5--5-----5--------------3-----5-----------------------------------------------
D|--------------5--6-----------------5--6-----------------------------------------
A|-----------------------1-----3--------------------------------------------------
E|--------------------------------------------------------------------------------
    Brianstorm
G|--------------------------------------------------------------------------------
D|--------------------------------------------------------------------------------
A|--------------------------------------------------------------------------------
E|--1--1-----1--1--1-----1--------------------------------------------------------

G|--------------------------------------------------------------------------------
D|--3-----------------------5-----------------------------------------------------
A|-----4--3-----4--4--6--7--------------------------------------------------------
E|--------------------------------------------------------------------------------

G|--------------------------------------------------------------------------------
D|--------------------------------------------------------------------------------
A|--3--------------3--3--------4-----------3--------3--3--------------------------
E|--------4--1-----------4--1-----------------4--1--------4--1--4-----0-----------
    I Want You Back
G|--------------------------------------------------------------------------------
D|-----------1--3--------------------0--1--2--3-----------------------3--6--3--6--
A|-----3--4--------4-----1--3--4-----------------3--4--------6--------------------
E|--4--------------------------------------------------4--6-----4-----------------

G|--------------------------------------------------------------------------------
D|--6--5--5--3--1-----1--------------1-----0--1--2--3-----------------------------
A|-----------------3-----3--4--3--1--------------------3--4--------6--------------
E|-----------------------------------------------------------4--6-----4-----------
    Money
G|-----4--------------------------------------------------------------------------
D|--------4--------------0--------------------------------------------------------
A|--2--------2-----0--2-----------------------------------------------------------
E|--------------3-----------------------------------------------------------------

G|--------------------------------------------------------------------------------
D|--4--4--4--------------4--3--2-----------------0--------------------------------
A|-----------4-----0--4-----------2--------0--2-----------------------------------
E|--------------2--------------------0--3-----------------------------------------

G|--------------------------------------------------------------------------------
D|--------------------------------------------------------------------------------
A|--2--2--2--2--2--2--------------2--2--5--4--3--2--------------------------------
E|--------------------------------------------------------------------------------
    Chameleon
G|-----------------------------------6--------------------------------------------
D|--------------6--8--------------8-----------------------------------------------
A|--------------------3--4--5--6--------------------------------------------------
E|--3--4--5--6--------------------------------------------------------------------
    Hysteria
G|-----------------------------------------------------------------------
D|-----------------------------------------------------------------------
A|--0--0--10----0-----10-12----0--10-0-----7--0--8--8--7--5--7-----------
E|-----------------------------------------------------------------------

G|-----------------------------------------------------------------------
D|-----------------------------------------------------------------------
A|-----------------------------10-------------10-10----10-12-------------
E|--0--0-----10-0--10-12----0-----0--12-0-----------12-------------------

G|-----------------------------------------------------------------------
D|--0--0--10-0--10-12-0-----10-0--10-9-----0--9--8--0--9--8--0--8--7-----
A|-----------------------------------------------------------------------
E|-----------------------------------------------------------------------

G|-----------------
D|-----------------
A|--0--10-0--10-12-
E|-----------------
    come as you are
G|-----------------------------------------------------------------------
D|-----------------5-----5--------------7--------7-----------------------
A|--5-----5--6--7-----7-----7--7--6--5-----5--5--------------------------
E|-----------------------------------------------------------------------





tabs and chords, guitar tabs, music transcription, music technology, deep learning, music information retrieval, transcribe into tabs & chords, chordify, music renditions, songsterr, reverbnation, tabulature, bollywood chords, ultimate guitar, yousician, guitar lessons, acoustic guitar, electric guitar, guitar tuner, 911 tabs