Bass Tabs for Gorduratrans Bass Lines

Gorduratrans Bass Lines

Você Não Sabe Quantas Horas Eu Passei Olhando Pra Você

Verse
G|-----------------------------------------------
D|----------------------------------------------- 
A|--7-----7-----7-----7-----7-----7-----7-----7--
E|-----------------------------------------------

G|-----------------------------------------------
D|----------------------------------------------- 
A|--4-----4-----------------4-----4--------------
E|--------------5-----5-----------------5-----5--

Chorus
G|-----------------------------------------------
D|-----------------------------------------------
A|--------------------------4-----4-----2-----2--
E|--5-----5-----2-----2--------------------------

G|-----------------------------------------------
D|-----------------------------------------------
A|--------------------------4-----4-----2-----2--
E|--5-----5-----2-----2--------------------------

Hercules Quasimodo

Verse
G|--------------------------------
D|--------------------------------
A|--4--4--4--5--4--7--7--7--5--5--
E|--------------------------------

Variation
G|-----------------------------------------------------------------
D|-----------------------------------------------------------------
A|-----------------------------------------------------------------
E|--2--2--2--2--0--2--2--2-----5--5--5--5--5--5--5--5--5--5--5--5--

Vcnvqnd

Intro
G|--------------------------------------
D|--------------------------------------
A|--3--3--3--0--0--0--------------------
E|--------------------0--0--0--3--3--3--

G|--------------------------------------------------------
D|--------------------------------------------------------
A|--3--3--3--3-----0--0--0--0-----------------------------
E|--------------0--------------0--0--0--0--3---3/5---5/7--

1st Verse Part
G|--------------------------------------
D|-------------------------------------- 2x
A|--------------------3--3--3--0--0--0--
E|--0--0--0--3--3--3--------------------

2nd Verse Part
G|--------------------------------------
D|-------------------------------------- 2x
A|--3--3--3--0--0--0--------------------
E|--------------------0--0--0--3--3--3--

Pre-Chorus
G|-----------------------
D|-----------------------
A|--3--3--3--3--0--0--0--
E|-----------------------

Chorus
G|--------------------------------------
D|-------------------------------------- 2x
A|--3--3--3--0--0--0--------------------
E|--------------------0--0--0--3--3--3--

G|--------------------------------------------------------
D|--------------------------------------------------------
A|--3--3--3--0--0--0--3--3--3--0--0--0--------------------
E|--------------------------------------0--0--0--3--3--3--

G|-----------------------------------------------------
D|-----------------------------------------------------
A|--------------------------------3--3--3--0--0---0/2--
E|--0--0--3--3--3--0--0--3--3--3-----------------------
tabs and chords, guitar tabs, music transcription, music technology, deep learning, music information retrieval, transcribe into tabs & chords, chordify, music renditions, songsterr, reverbnation, tabulature, bollywood chords, ultimate guitar, yousician, guitar lessons, acoustic guitar, electric guitar, guitar tuner, 911 tabs