Guitar Tabs for Ek Ladki Bheegi Bhaagi

ek ladki bheegi...
E|--------------------------------------------------
B|--6--8--9--8--9--6--8------6\4------4/6--6--6-----
G|-----------------------8--------5-----------------
D|--------------------------------------------------
A|--------------------------------------------------
E|--------------------------------------------------


soti raaton...
E|--------------------------------------------------
B|--6--8--9--8--9--6--8------6\4------4/6--6--6-----
G|-----------------------8--------5-----------------
D|--------------------------------------------------
A|--------------------------------------------------
E|--------------------------------------------------


mili ek ajnaabi
E|-----6---6/8--8--9---8h-9p8--8-----------6--6--8---6h-8p6--6--
B|--9--------------------------------8--9-----------------------
G|--------------------------------------------------------------
D|--------------------------------------------------------------
A|--------------------------------------------------------------
E|--------------------------------------------------------------


tum he kaho....
E|--------------------------------------------
B|--9--8--9--6--8------6/4------4/6--6--6-----
G|-----------------8--------5-----------------
D|--------------------------------------------
A|--------------------------------------------
E|--------------------------------------------


antra...
E|--------------------6--------6---8/9--8--8-----
B|--6--8--9-----8--9--------9--------------------
G|-----------------------------------------------
D|-----------------------------------------------
A|-----------------------------------------------
E|-----------------------------------------------

E|--------------------6--------6---8/9--8--8-----
B|--6--8--9-----8--9--------9--------------------
G|-----------------------------------------------
D|-----------------------------------------------
A|-----------------------------------------------
E|-----------------------------------------------

E|--9--11-11/13-11-9--11/13----11-9--8-----6------6h8--
B|--------------------------------------------9--------
G|-----------------------------------------------------
D|-----------------------------------------------------
A|-----------------------------------------------------
E|-----------------------------------------------------

E|-----8--8-----9---6h-8p6--6--------------
B|-----------------------------9--8--6-----
G|-----------------------------------------
D|-----------------------------------------
A|-----------------------------------------
E|-----------------------------------------


mili ek ajnaabi
E|-----6---6/8--8--9---8h-9p8--8--------------6--6--8---6h-8p6--6--
B|--9--------------------------------8--9--------------------------
G|-----------------------------------------------------------------
D|-----------------------------------------------------------------
A|-----------------------------------------------------------------
E|-----------------------------------------------------------------



tum he kaho....
E|--------------------------------------------
B|--9--8--9--6--8------6/4------4/6--6--6-----
G|-----------------8--------5-----------------
D|--------------------------------------------
A|--------------------------------------------
E|--------------------------------------------
tabs and chords, guitar tabs, music contests, music covers, songsterr, reverbnation, renditions, tabulature, bollywood chords, ultimate guitar, yousician, guitar lessons, torrins, fender, gibson, acoustic guitar, electric guitar, youtube covers, gootar, guitar tuner, A-Z tabs, 911 tabs