Guitar Tabs for Ek Dil Ek Jaan - Padmavati Tabs

(/) Slide Up  (\) Slide Down  (h) Hammer On  (p) Pull Off  (b) Bend (r) Release (v) Vibrato

Ek Dil Ek Jaan - Padmavati Tabs

Ek dil hai
E|--------------------
B|--2--5--3-----------
G|--------------6-----
D|--------------------
A|--------------------
E|--------------------

Ek jaan hai
E|--------------------
B|--2--5--3-----------
G|-----------6--6-----
D|--------------------
A|--------------------
E|--------------------

Dono tujhpe… Kurban hain
E|--------------------------------
B|--------2-----------------------
G|-----2-----4-----0-----0--0--0--
D|--4-----------------4-----------
A|--------------------------------
E|--------------------------------

Ek main hoon, ek imaan hai
E|--------------------------------------
B|--2--5--3-----------2--5--3-----------
G|-----------6--6--------------6--6-----
D|--------------------------------------
A|--------------------------------------
E|--------------------------------------

Dono tujhpe haan tujhpe … 
E|--------------------------------
B|--------2--2-----2--5--3--3--3--
G|-----2--------------------------
D|--4-----------------------------
A|--------------------------------
E|--------------------------------

Dono tujhpe qurbaan hain
E|-----------------------------------
B|--------2--2-----------------------
G|-----2-----------0-----0--0--0-----
D|--4-----------------4--------------
A|-----------------------------------
E|-----------------------------------

Mere ishq ke, har maqaam mein
E|--------------------------------------------
B|-----------------------0--------------------
G|--------0--0--0-----0-----2--0--------0-----
D|--0--4--------------------------2--4--------
A|--------------------------------------------
E|--------------------------------------------

Har subah mein, har shaam mein
E|--------------------------2--------------------
B|--------2--2--0--2-----3-----3--2--0--2--3-----
G|-----2-----------------------------------------
D|--4--------------------------------------------
A|-----------------------------------------------
E|-----------------------------------------------

Ik rutba hai, ek shaan hai
E|--3--2-----------3--2-----3--2-----------3--2--3--
B|--------3--0--3-----------------3--0--3-----------
G|--------------------------------------------------
D|--------------------------------------------------
A|--------------------------------------------------
E|--------------------------------------------------

Dono tujhpe haan tujhpe
E|--3--2-----------3--2--
B|--------3--3--0--------
G|-----------------------
D|-----------------------
A|-----------------------
E|-----------------------

Dono tujhpe qurbaan hain
E|-----------------------------------
B|--------2--2-----------------------
G|-----2-----------0-----0--0--0-----
D|--4-----------------4--------------
A|-----------------------------------
E|-----------------------------------
tabs and chords, guitar tabs, music transcription, music technology, deep learning, music information retrieval, transcribe into tabs & chords, chordify, music renditions, songsterr, reverbnation, tabulature, bollywood chords, ultimate guitar, yousician, guitar lessons, acoustic guitar, electric guitar, guitar tuner, 911 tabs