Guitar Tabs for Dusk To Dawn

(/) Slide Up  (\) Slide Down  (h) Hammer On  (p) Pull Off  (b) Bend (r) Release (v) Vibrato (x) Muted

Tabs for Song : 

Song lyrics here
E|--------------------------------------------------------------------------------------------------
B|--------------------------------------------------------------------------------------------------
G|--------------------------------------------------------------------------------------------------
D|--------7-----------7-----------6-----------6-----------4-----------4-----------3-----------3-----
A|--9-----------9-----------7-----------7-----------5-----------5-----------4-----------4-----------
E|-----2-----2-----2-----2-----2-----2-----2-----2-----2-----2-----2-----2-----2-----2-----2-----2--

E|-----------------------------------------------------------------------------------------------
B|-----------------------------------------------------------------------------------------------
G|--------------------------------------6-----4-----------------------------------------6-----4--
D|--7-----6-----4-----3-----7-----6-----------------7-----6-----4-----3-----7-----6--------------
A|--9-----7-----5-----4-----9-----7-----5-----4-----9-----7-----5-----4-----9-----7-----5-----4--
E|--2--2--2--2--2--2--2--2--2--2--2--2--2--2--2--2--2--2--2--2--2--2--2--2--2--2--2--2--2--2--2--

E|--2--2--2--2--2--2--2--2--2--2--2--2--2--2--2--2--2--2--2--
B|--2--2--2--2--2--2--2--2--2--2--2--2--2--2--2--2--2--2--2--
G|--2--2--2--2--2--2--2--2--2--2--2--2--2--2--2--2--2--2--2--
D|--7--6--4--3--7--6--4--3--7--6--4--3--7--6--4--3--3--3--3--
A|--9--7--5--4--9--7--5--4--9--7--5--4--9--7--5--4--4--4--4--
E|--2--2--2--2--2--2--2--2--2--2--2--2--2--2--2--2--2--2--2--

E|--2--2--2--2--2--2--2--2--2--2--2--2--2--2--2--2--2--2--2--2--2--2--2--2--2--2--2--2--2--2--2--2--2--2--
B|--2--2--2--2--2--2--2--2--2--2--2--2--2--2--2--2--2--2--2--2--2--2--2--2--2--2--2--2--2--2--2--2--2--2--
G|--2--9--2--8--2--5--2--4--2--9--2--8--2--5--2--4--2--9--2--8--2--5--2--4--9--9--8--8--5--5--4--4--4--4--
D|--7--7--6--6--4--4--3--3--7--7--6--6--4--4--3--3--7--7--6--6--4--4--3--3--7--7--6--6--4--4--3--3--3--3--
A|--9--9--7--7--5--5--4--4--9--9--7--7--5--5--4--4--9--9--7--7--5--5--4--4--9--9--7--7--5--5--4--4--4--4--
E|--2--2--2--2--2--2--2--2--2--2--2--2--2--2--2--2--2--2--2--2--2--2--2--2--2--2--2--2--2--2--2--2--2--2--

E|--------------------------------------------------------------------------------------------------------------------------------------------------------------------------
B|--------------------------------------------------------------------------------------------------------------------------------------------------------------------------
G|--------------------------------------------------------------------------------------------------------------------------------------------------------------------------
D|-----7--------7--------6--------6--------4--------4--------3--------3--------7--------7--------6--------6--------4--------4--------3--------3-----------------------------
A|--------9--------9--------7--------7--------5--------5--------4--------4--------9--------9--------7--------7--------5--------5--------4--------4-----4-----4-----4-----4v-
E|--2--------2--------2--------2--------2--------2--------2--------2--------2--------2--------2--------2--------2--------2--------2--------2--------2-----2-----2-----2-----

E|-----2-----2-----2-----2-----2-----2-----2-----2--------------2--2--2--2--
B|-----2-----2-----2-----2-----2-----2-----2-----2--------------2--2--2--2--
G|--9--9--6--6--4--4--3--3--9--9--6--6--4--4--3--3--9--6--4--3--9--6--4--3--
D|--7--7--6--6--4--4--3--3--7--7--6--6--4--4--3--3--7--6--4--3--7--6--4--3--
A|--9--9--7--7--5--5--4--4--9--9--7--7--5--5--4--4--9--7--5--4--9--7--5--4--
E|--2--2--2--2--2--2--2--2--2--2--2--2--2--2--2--2--2--2--2--2--2--2--2--2--

E|--2--2--2--2--2-----2--2--2--7--2--5--2--4--2--7--5--4--2--7--5--4--4--
B|--2--2--2--2--2-----2--2--2--2--2--2--2--2--2--2--2--2--2--2--2--2--2--
G|--9--6--4--3--3-----9--9--6--6--4--4--3--3--9--6--4--3--9--6--4--3--3--
D|--7--6--4--3--3-----7--7--6--6--4--4--3--3--7--6--4--3--7--6--4--3--3--
A|--9--7--5--4--4-----9--9--7--7--5--5--4--4--9--7--5--4--9--7--5--4--4--
E|--2--2--2--2--2-----2--2--2--2--2--2--2--2--2--2--2--2--2--2--2--2--2--

E|--2--2--2--2--2-----2--2--2--2--2--2--2--2--2--2--2--2-----2--2--2--2--
B|--2--2--2--2--2-----9--7--5--4--9--7--5--4--9--7--5--4-----4--5--7--9--
G|--9--6--4--3--3-----2--2--2--2--2--2--2--2--2--2--2--2-----2--2--2--2--
D|--7--6--4--3--3-----7--6--4--3--7--6--4--3--7--6--4--3-----3--4--6--7--
A|--9--7--5--4--4-----9--7--5--4--9--7--5--4--9--7--5--4-----4--5--7--9--
E|--2--2--2--2--2-----2--2--2--2--2--2--2--2--2--2--2--2-----2--2--2--2--

E|--9--7--5--4--9--7--5--4--9--7--5--4--9--7--5--4-----
B|--2--2--2--2--2--2--2--2--2--2--2--2-----------------
G|--2--2--2--2--2--2--2--2--2--2--2--2-----------------
D|--7--6--4--3--7--6--4--3--7--6--4--3--7--6--4--3-----
A|--9--7--5--4--9--7--5--4--9--7--5--4--9--7--5--4-----
E|--2--2--2--2--2--2--2--2--2--2--2--2-----------------

E|--2--2--2--2--9--7--5--4--2--9--2--7--2--5--2--4-----------
B|--9--7--5--4--2--2--2--2--9--2--7--2--5--2--4--2-----------
G|--2--2--2--2--2--2--2--2--2--2--2--2--2--2--2--2-----------
D|--7--6--4--3--7--6--4--3--7--7--6--6--4--4--3--3-----------
A|--9--7--5--4--9--7--5--4--9--9--7--7--5--5--4--4--9--7--9--
E|--2--2--2--2--2--2--2--2--2--2--2--2--2--2--2--2-----------

Paste any tab in acousterr's tab maker and we'll play it !!!
Now supports capo and sound effects for vibrato/pull-off/hammer/bends/mutes etc !!! Checkout help section
tabs and chords, guitar tabs, music transcription, music technology, deep learning, music information retrieval, transcribe into tabs & chords, chordify, music renditions, songsterr, reverbnation, tabulature, bollywood chords, ultimate guitar, yousician, guitar lessons, acoustic guitar, electric guitar, guitar tuner, 911 tabs