Guitar Tabs for Dawn

(/) Slide Up  (\) Slide Down  (h) Hammer On  (p) Pull Off  (b) Bend (r) Release (v) Vibrato (x) Muted

Tabs for Song : 

Song lyrics here
E|-----------------------------------------------------------------------------------------------------------------------------------------------
B|-----------------------------------------------------------------------------------------------------------------------------------------------
G|-----------------------------------------------------------------------------------------------------------------------------------------------
D|--------0--2--4--2--0--------------------0--2--4--2--0-----5--4--5-----------0--2--4--2--0--------------------0--2--4--2--0-----5--5--4--4--5--
A|--0--0--------------------2--0-----0--0--------------------------------0--0--------------------2--0-----0--0-----------------------------------
E|-----------------------------------------------------------------------------------------------------------------------------------------------

E|-----------------------------------
B|-----1--------1--------0--------2--
G|-----2--------2--------0--------3--
D|--2--------0--------0--------0-----
A|--0--------3--------2--------0-----
E|-----------------------------------

E|-----------------------------------------------------------
B|-----------1--------------1--------------0--------------2--
G|--------2--------------2--------------0--------------3-----
D|-----2--------------0--------------0--------------0--------
A|--0--------------3--------------2--------------0-----------
E|-----------------------------------------------------------

E|--------------3-----2--
B|--1-----1-----------1--
G|--2-----2-----------3--
D|--2--------------------
A|--------3-----2--------
E|--------------3--------

Song lyrics here
E|--
B|--
G|--
D|--
A|--
E|--

Paste any tab in acousterr's tab maker and we'll play it !!!
Now supports capo and sound effects for vibrato/pull-off/hammer/bends/mutes etc !!! Checkout help section
tabs and chords, guitar tabs, music transcription, music technology, deep learning, music information retrieval, transcribe into tabs & chords, chordify, music renditions, songsterr, reverbnation, tabulature, bollywood chords, ultimate guitar, yousician, guitar lessons, acoustic guitar, electric guitar, guitar tuner, 911 tabs